Music Guitar Tab, Tabs with MP3, ringtones, ringtone, concert tickets, guitar lessons, guitar tabs easy, guitar hero

Guitar Tabs Guitar Chords Bass Tabs
 Web Guitar Tabs
Guitar Lessons
 
Lyrics abcdefghijklmnopqrstuvwxyz # Top 100 Lyrics

Guitar Tabs
Guitar Tab






click on, click off


Tab for "Second Heartbeat" - Avenged Sevenfold Rating 4Print Guitar Tabs
select alternative YouTube videos below...
Tweak the search term to refine the YouTube video results:         
Share on Facebook

Learn to play this song and others via online guitar lessons @ JamPlay.com!

A7X Second heartbeat
Bassist: Johnny Christ
from a7x4life@sbcglobal.net


(1X)
G|------------------------------------------------------|
D|------------------------------------------------------|
A|33333333-3~--333-----------3~-3-55-66-53--------------|
D|-----------------6--3--5----------------6-3--5-------|
^
(1X)
G|-------------------------------------------------------------------|
D|-------------------------------------------------------------------|
A|-3333333-----------------33333333-3~-3-56-53--------------------3~-|
D|--------666666-3333-5555---------------------66666-33333-55555-----|
   ^^^^^^ ^^^^^^ ^^^^ ^^^^                     ^^^^^ ^^^^^ ^^^^^
(2X)
G|------------------------------------------|
D|------------------------------------------|
A|--333-555-666-----3333-1111---------------|
D|--------------666-------------------------|

(1X)
G|--------------------------------------|
D|--------------------------------------|
A|--3333-5555-6666------33-33-11-11-----|
D|-----------------6666-----------------|

(1X)
G|-----------------------------------------|
D|-----------------------------------------|
A|--333-555-666-----33-33-11-11------------|
D|--------------666-------------55-55--0000|

(1X)
G|-------------------------------------------|
D|-------------------------------------------|
A|----3/7-7-787-5----3/99-10-9-11~-11-11-11-|
D|-3-3------------3-3------------------------|

(2X)
G|----------------------------------|
D|----------------------------------| after second time
A|--33-3333-------------------------| (3~)
D|----------66-6666-33-3333-55-5555-|

(2X)                                   (1x)
G|-----------------------------------| G|----------------|
D|-----------------------------------| D|----------------|
A|--3-3333-3-3-3-3-3-3333-33---------| A|-333333333------|
D|---------------------------56-34---| D|-----------56-34|
                                          ^^^^^^^^^^
(1x)
G|------------------------------------|
D|------------------------------------|
A|--3-3333-3-3-3-3-3-3333-33----------|
D|---------------------------56-34--0-|

(6X)
G|----------------------------------------------------|
D|----------------------------------------------------|
A|----------------------------------------------------|
D|--(11)-(11)(11)-(11)-(11)--9-99-99-7-77-77-9-9-9-9--|

(3X)
G|----------------------------------------------------------|
D|----------------------------------------------------------|
A|--3333-77-66-55-44--1111-22-323------1111-3333-77-66-55-44|
D|--------------------------------5555----------------------|

(1X)
G|-----------------------------------------|
D|-----------------------------------------|
A|--3333-77-66-55-44--1111-22-323-----1~-3~|
D|----------------------------------5~-----|

(1X)
G|--------------------------|
D|--------------------------|
A|--3~--1~-----111-333------|
D|--------5~----------------|

(4X)
G|-----------------------------------|
D|-----------------------------------|
A|--33---------33-55-66--------------|
D|-----0-34-56-----------------------|

(2X)
G|--------------------------------------------|-----------|
D|--------------------------------------------|-----------|
A|--------------------------------------------|-----------|
D|-0-0-2323-5-000000-0-0-2323-5-00-777-555----|-0-0234567-|

(1X)
G|---------------------------------------|
D|---------------------------------------|
A|--3~------------3~--3-5-6-55-3---------|
D|-----6~--3~--5~----------------6--3-5--|

(1X)
G|-------------------------------------------------------------------|
D|-------------------------------------------------------------------|
A|-3333333-----------------33333333-3~-3-56-53--------------------3~-|
D|--------666666-3333-5555---------------------66666-33333-55555-----|
   ^^^^^^ ^^^^^^ ^^^^ ^^^^ ^^^^^^^^            ^^^^^ ^^^^^ ^^^^^

 (2X)
G|---------------------------------------------------------|
D|---------------------------------------------------------|
A|--3333-77-66-55-44-1111-22-323------1111-3333-77-66-55-44|
D|-------------------------------5555----------------------|

 (4X)
G|--------------------------------------------------|
D|--------------------------------------------------|
A|--------------------------------------------------|
D|--(11)-(11)(11)-(11)-(11)--9-99-99-7-77-77-9-9-9-9|
(4X)
G|---------------------------------------------------------|
D|---------------------------------------------------------|
A|--3333-77-66-55-44-1111-22-323------1111-3333-77-66-55-44|
D|-------------------------------5555----------------------|


(2X)
G|-------------------------------------------------------------------------------------------|
D|-------------------------------------------------------------------------------------------|
A|-------------------------------------------------------------------------------------------|
D|-11--11:11:11:11:11:11:11:11-9-99999999-7-77777777-9-99999999-11--11:11:11:11:11:11:11:11--|

(1X)
G|---------------------------------------------------------------------------------------|
D|---------------------------------------------------------------------------------------|
A|---------------------------------------------------------------------------------------|
D|-11:11:11:11:11:11:11:11:11-999999999-777777777-999999999-11:11:11:11:11:11:11:11:11---|

(1X)
G|-----------------------------------------------|
D|-----------------------------------------------|
A|-----------------------------------------------|
D|-11:11:11:11:11:11:11:11:11-999999999-7~-9~-11~|


^ is hit string more times.
/ is to slide.
(11) Is 11.
: is just spacing the 11s
									


911Tabs.com - tabs search engine
More "Second Heartbeat" tabs @ 911Tabs

A Guide to Tab NotationGuitar TabsGuitar ResourcesGuitar TabsPrivacy PolicyGuitar TabsContact

Online Guitar Lessons

Avenged Sevenfold Guitar Tabs - Over 200,000 chords, guitar and bass tabs with video. Find tabs, video guitar lessons and more.