Music Guitar Tab, Tabs with MP3, ringtones, ringtone, concert tickets, guitar lessons, guitar tabs easy, guitar hero

Guitar Tabs Guitar Chords Bass Tabs
 Web Guitar Tabs
Guitar Lessons
 
Lyrics abcdefghijklmnopqrstuvwxyz # Top 100 Lyrics

Guitar Tabs
Guitar Tab






click on, click off


Tab for "Scream" - Avenged Sevenfold Rating 4Print Guitar Tabs
select alternative YouTube videos below...
Tweak the search term to refine the YouTube video results:         
Share on Facebook

Learn to play this song and others via online guitar lessons @ JamPlay.com!

TUNING DROP D DOWN HALF A STEP : C# G# C# F# A# D#

INTRO
--------------------------------------------------------------------13-13-15-17--20b(22)-|
----------------------------------------------------13-13-15-15--------------------------|
--------------------------------------------14-14----------------------------------------|
--0-0---0-0---------------12-12-15-15----------------------------------------------------|
--0-0---0-0--------12-12-----------------------------------------------------------------|
--0-0---0-0------------------------------------------------------------------------------|

--------------------------------------------------------------------------------------------|
--------------------------------------------------------------------------------------------|
--------------------------------------------------------------------------------------------|
--0-0---0-0------------------------15-15-15-15-12-12-12-12-10-10-10-10----------------------|
--0-0---0-0-------12-12-12-12--------------------------------------------------12-12-11-11--|
--0-0---0-0---------------------------------------------------------------------------------|

--------------------------------------------------------------------13-13-15-17--20b(22)--|
----------------------------------------------------13-13-15-15---------------------------|
--------------------------------------------14-14-----------------------------------------|
--0-0---0-0---------------12-12-15-15-----------------------------------------------------|
--0-0---0-0--------12-12------------------------------------------------------------------|
--0-0---0-0-------------------------------------------------------------------------------|

------------------------------------------------------------------------------------------|
---------------------(gradually bend the 14 up to 15 over the course of  picking 14)------|
--------------------14-14-14-14-14-14-14-14-14-14-14-14-14-14-14b(15)---------------------|
--0-0---0-0-------------------------------------------------------------------------------|
--0-0---0-0-------------------------------------------------------------------------------|
--0-0---0-0-------------------------------------------------------------------------------|

VERSE
--------------------------------------------------------------------13-13-15-17--20b(22)--|
----------------------------------------------------13-13-15-15---------------------------|
--------------------------------------------14-14-----------------------------------------|
--0-0---0-0---------------12-12-15-15-----------------------------------------------------|
--0-0---0-0--------12-12------------------------------------------------------------------|
--0-0---0-0-------------------------------------------------------------------------------|

-------------------------------------------------------------------------------------------|
-------------------------------------------------------------------------------------------|
-------------------------------------------------------------------------------------------|
--0-0---0-0------------------------15-15-15-15-12-12-12-12-10-10-10-10---------------------|
--0-0---0-0-------12-12-12-12--------------------------------------------------12-12-11-11-|
--0-0---0-0--------------------------------------------------------------------------------|

--------------------------------------------------------------------13-13-15-17--20b(22)---|
----------------------------------------------------13-13-15-15----------------------------|
--------------------------------------------14-14------------------------------------------|
--0-0---0-0---------------12-12-15-15------------------------------------------------------|
--0-0---0-0--------12-12-------------------------------------------------------------------|
--0-0---0-0--------------------------------------------------------------------------------|

-------------------------------------------------------------------------------------------|
-------------------------------------------------------------------------------------------|
-------------------------------------------------------------------------------------------|
--0-0---0-0--------------------------------------------------------------------------------|
--0-0---0-0--------------------------------------------------------------------------------|
--0-0---0-0--------------------------------------------------------------------------------|

PRE CHORUS
------------------------------------------------------------------------------------|
------------------------------------------------------------------------------------|
------------------------------------------------------------------------------------|
-----------0--0-------------0---3---5----------------0--0-------------0---8---7--5--|
-----------0--0-------------0---3---5----------------0--0-------------0---8---7--5--|
--3/12~----0--0----3/12~----0---3---5-------3/12~----0--0----3/12~----0---8---7--5--|

------------------------------------------------------------------------------------|
------------------------------------------------------------------------------------|
------------------------------------------------------------------------------------|
-----------0--0-------------0---3---5---1-1-1-1-1-1-1-1-1-1-1-1-1-------------------|
-----------0--0-------------0---3---5---1-1-1-1-1-1-1-1-1-1-1-1-1-------------------|
--3/12~----0--0----3/12~----0---3---5---1-1-1-1-1-1-1-1-1-1-1-1-1-------------------|


REPEAT VERSE
REPEAT PRE CHORUS (but strum 1 to the end of the bar instead of having a rest)


PRE CHORUS 2 (X4)

-------------------------------------|
-------------------------------------|
-------------------------------------|
-5-5-5-5-5-5-5-5--7-7-7-7-7-7-7-7----|
-5-5-5-5-5-5-5-5--7-7-7-7-7-7-7-7----|
-5-5-5-5-5-5-5-5--7-7-7-7-7-7-7-7----|

CHORUS (X2)                               1.                                  2.
-------------------------------------------|----------------------------------|---|
-------------------------------------------|----------------------------------|---|
-------------------------------------------|----------------------------------|---|
--8----8-5---7--5-----8-----8-5---10--5----|-7-7-7-7-7-7-8-8-5-5-5-5-5-5-5-5--|---|
--8----8-5---7--5-----8-----8-5---10--5----|-7-7-7-7-7-7-8-8-5-5-5-5-5-5-5-5--|---|
--8----8-5---7--5-----8-----8-5---10--5----|-7-7-7-7-7-7-8-8-5-5-5-5-5-5-5-5--|---|


SOLO RHYTHM (X2)
------------------------------------------------------------------------------|
------------------------------------------------------------------------------|
------------------------------------------------------------------------------|
--0-0-----0-0-0----0-2-2-----2-2-2----2-8-8-----8-8-8-----8-7-7----7-7-7----7-|
--0-0-----0-0-0----0-2-2-----2-2-2----2-8-8-----8-8-8-----8-7-7----7-7-7----7-|
--0-0-----0-0-0----0-2-2-----2-2-2----2-8-8-----8-8-8-----8-7-7----7-7-7----7-|

SOLO (X2) (all in triplets apart from final note) ***UPDATED***

|-17-13------13-----16-13------13----18-15------15----
|------14--14---(X4)-----13--14--(X4)-----17--17--(X4)
|--------15----------------14---------------15--------
|-----------------------------------------------------
|-----------------------------------------------------
|-----------------------------------------------------

|-17-13------13-16-13------13-------------13-17b------|
|------14--14--------13--13-------13-14-15------------|
|--------15------------14-------14--------------------|
|-----------------------------15----------------------|
|-----------------------------------------------------|
|-----------------------------------------------------|


DUAL SOLO (X4) (Rhythm same as solo above but strummed constantly)

------------------------------------------------------------------------------------|
-------------------------------------------11------------------10-------------------|
-7-9-10-7-9-10-/14----7-9-10-7-/15---14------12------------12----9-9-7-9-10-9-7-----|
-----------------------------------------------12--------12-------------------------|
-------------------------------------------------13-10-13---------------------------|
------------------------------------------------------------------------------------|

-------------------------------------------10------------------9--------------------|
-6-8-10-6-8-10-/15----6-8-10-6-/20---18------11-----------------10-8-6-8-10-8-6-----|
-----------------------------------------------12--------12-------------------------|
-------------------------------------------------12----12---------------------------|
----------------------------------------------------13------------------------------|
------------------------------------------------------------------------------------|

Breakdown sort of thing

------------------------------------------------------------------------------------|
------------------------------------------------------------------------------------|
------------------------------------------------------------------------------------|
----------------------------------------------------------------------7------5---3--|
----------------------------------------------------------------------7------5---3--|
-3/12--3/12--3/12-------3/12-3/12-3/12----3/12--3/12--3/12------3/12--7------5---3--|

------------------------------------------------------------------------------------|
------------------------------------------------------------------------------------|
------------------------------------------------------------------------------------|
-------------------------------------------------------1--1--1--1--1--1--1--1--1--1-|
-------------------------------------------------------1--1--1--1--1--1--1--1--1--1-|
-3/12--3/12--3/12-------3/12-3/12-3/12----3/12--3/12---1--1--1--1--1--1--1--1--1--1-|

PRE CHORUS (X4)
CHORUS (X2)



OUTRO (X4)

|-------------------------------------------------------------------------------|
|-------------------------------------------------------------------------------|
|-------------------------------------------------------------------------------|
|--0-0---0-0-------------------------------0-0---0-0----------------------------|
|--0-0---0-0-------------------------------0-0---0-0----------------------------|
|--0-0---0-0-------------------------------0-0---0-0----------------------------|
|
|       (let ring)(they fade in and out)
|-------------------------------------------------------------------------------|
|-------10--10--10--10--10--10--10--10------------------------------------------|
|---------12--10--12--10--12--10--12--10----------------------------------------|
|-------------------------------------------------------------------------------|
|-------------------------------------------------------------------------------|
|-------------------------------------------------------------------------------|
									


911Tabs.com - tabs search engine
More "Scream" tabs @ 911Tabs

A Guide to Tab NotationGuitar TabsGuitar ResourcesGuitar TabsPrivacy PolicyGuitar TabsContact

Online Guitar Lessons

Avenged Sevenfold Guitar Tabs - Over 200,000 chords, guitar and bass tabs with video. Find tabs, video guitar lessons and more.