Music Guitar Tab, Tabs with MP3, ringtones, ringtone, concert tickets, guitar lessons, guitar tabs easy, guitar hero

Guitar Tabs Guitar Chords Bass Tabs
 Web Guitar Tabs
Guitar Lessons
 
Lyrics abcdefghijklmnopqrstuvwxyz # Top 100 Lyrics

Guitar Tabs
Guitar Tab






click on, click off


Tab for "Scream" - Avenged Sevenfold Rating 4Print Guitar Tabs
select alternative YouTube videos below...
Tweak the search term to refine the YouTube video results:         
Share on Facebook

Learn to play this song and others via online guitar lessons @ JamPlay.com!

Scream-By Avenged Sevenfold

This is a new song from avenged sevenfold.
I have the intro,chorus,and solo done.If you know any other parts in the song,please tell me.

www.myspace.com/sorrowswallowsmyscreams

INTRO---

e:------------__________palm mutes____________________----------|
b:------------9-9-9-9-10-10-10-10-15-15-15-15-17-17-17-17-20----|
g:--------------------------------------------------------------|
d:-00-00--------------------------------------------------------|
a:-00-00--------------------------------------------------------|
d:-00-00--------------------------------------------------------|

e:------------------------------------------------------------|
b:------------__Light palm muting________________-------------|
g:------------9-9-9-9-12-12-12-12-8-8-8-8-6-6-6-6-------------|
d:-00-00------------------------------------------------------|
a:-00-00------------------------------------------------------|
d:-00-00------------------------------------------------------|

e:------------__________palm mutes____________________----------|
b:------------9-9-9-9-10-10-10-10-15-15-15-15-17-17-17-17-20----|
g:--------------------------------------------------------------|
d:-00-00--------------------------------------------------------|
a:-00-00--------------------------------------------------------|
d:-00-00--------------------------------------------------------|

*slight palm mute,bend 9 while picking and a full bend on 12
e:------------------------------------------------------------|
b:------------9-9-9-9-9-9-9-9-9-9-9-9-12^---------------------|
g:------------------------------------------------------------|
d:-00-00------------------------------------------------------|
a:-00-00------------------------------------------------------|
d:-00-00------------------------------------------------------|

VERSE-SAME AS INTRO

CHORUS---

e:--------------------------|
b:--------------------------|
g:--------------------------|
d:-------00-------00-3--5---|x2
a:-------00-------00-3--5---|
d:-10^^^-00-10^^^-00-3--5---|
Theres a couple more chords in the chorus(if you have any idea what else is in the 
please tell me!)

1st solo not done yet.

2nd solo--

e:----------------------------------------|
b:-8-10-11-10-8-10-17^--8-10-11-10-19-17--|
g:----------------------------------------|
d:----------------------------------------|
a:----------------------------------------|
d:----------------------------------------|

e:-17-13-----------13-----16-------------16---|
b:-------15------15---------17---------17-----|
g:---------14--14-------------16-----16-------|
d:-----------15-----------------18------------|
a:--------------------------------19----------|
d:--------------------------------------------|

e:----------------------------------------|
b:-8-10-11-10-8-10-17^--8-10-11-10-19-17--|
g:----------------------------------------|
d:----------------------------------------|
a:----------------------------------------|
d:----------------------------------------|

e:-17-13-----------13-----16-------------16---|
b:-------15------15---------17---------17-----|
g:---------14--14-------------16-----16-------|
d:-----------15-----------------18------------|
a:--------------------------------19----------|
d:--------------------------------------------|
Thats all I have for right now.I'll put more up later
please comment and rate
									


911Tabs.com - tabs search engine
More "Scream" tabs @ 911Tabs

A Guide to Tab NotationGuitar TabsGuitar ResourcesGuitar TabsPrivacy PolicyGuitar TabsContact

Online Guitar Lessons

Avenged Sevenfold Guitar Tabs - Over 200,000 chords, guitar and bass tabs with video. Find tabs, video guitar lessons and more.