Music Guitar Tab, Tabs with MP3, ringtones, ringtone, concert tickets, guitar lessons, guitar tabs easy, guitar hero

Guitar Tabs Guitar Chords Bass Tabs
 Web Guitar Tabs
Guitar Lessons
 
Lyrics abcdefghijklmnopqrstuvwxyz # Top 100 Lyrics

Guitar Tabs
Guitar Tab






click on, click off


Tab for "Remenissions" - Avenged Sevenfold Rating 4Print Guitar Tabs
select alternative YouTube videos below...
Tweak the search term to refine the YouTube video results:         
Share on Facebook

Learn to play this song and others via online guitar lessons @ JamPlay.com!

Avenged Sevenfeold-Remenissions
Album-Waking the Fallen(2003)

All Guitars-Drop D

4/4
Synister& Zacky

e|---------|------------|----------|---|------------||
B|---------|------------|----------|---|------------||
G|---------|------------|----------|---|------------||
D|--------0|---0--------|--------0-|---|------------||
A|-0----0--|-1---0------|-0----0---|1--|-xxxxxxxxxxx||
D|-0-3~-0--|-------5-3-2|-0-3~-0---|---|-xxxxxxxxxxx||
                                       Pickslide
Guitar 1
e|-------------|------------|------------|------------|
B|o------------|------------|------------|------------|
G|-------------|------------|------------|------------|
D|----------777|555---------|---------555|------7~----|
A|o555777888---|---888777555|444555777---|444000------|
D|-------------|------------|------------|------------|


e|-------------|------------|------------|------------||
B|-------------|------------|------------|-----------o||
G|----------333|------------|------------|------------||
D|----000333---|333000---000|------222---|5~----------||x2
A|-111---------|------111---|000444---444|-----------o||
D|-------------|------------|------------|------------||



Guitar 2(comes in on second time)

e|------------|------------|------------|------------|
B|------------|------------|------------|------------|
G|---------555|------------|------------|------------|
D|777555777---|888777555---|------555888|------------|
A|------------|---------888|777888------|7774444~----|
D|------------|------------|------------|------------|

e|------------|------------|------------|------------||
B|------------|------------|------------|------------||
G|---------777|------------|------------|------------||
D|------888---|888---------|------555---|------------||
A|555888------|---888555888|444777---444|7~----------||
D|------------|------------|------------|------------||


Pre-Verse

Guitar 1
e|---------------|---------------|---------------|-5-----------||
B|--------5------|--------3------|--------2------|-5-----------||
G|--------2------|--------3------|--------3------|-------------||
D|--------0------|--------0------|--------0------|-------------||
A|-0-0--0-0------|-0-0--0-0------|-0-0--0-0------|-------------||
D|-0-0--0-0------|-0-0--0-0------|-0-0--0-0------|-------------||
   * *  *          * *  *          * *  *       
Guitar 2
e|--------5------|--------5------|---------------|-5-----------||
B|--------3------|--------5------|--------2------|-5-----------||
G|--------2------|--------3------|--------3------|-3-----------||
D|--------0------|--------0------|--------0------|-------------||
A|-0-0--0-0------|-0-0--0-0------|-0-0--0-0------|-------------||
D|-0-0--0-0------|-0-0--0-0------|-0-0--0-0------|-------------||
   * *  *          * *  *          * *  *   

Verse

e|----------------------------|--------------------------------|
B|----------------------------|--------------------------------|
G|----------------------------|--------------------------------|
D|--0-----3p2-0-0-------3p2-0-|-8-------------8----------------|
A|--0-0-0-3p2-0-0-0-0-0-3p2-0-|-8---------5---8-------------5--|
D|--0-0-0-3p2-0-0 0-0-0-3p2-0-|-8-8-8-8-8---8-8-----8-8-8-8----|
      * *         * * *           * * * *   *       * * * *
e|-------------------------|
B|-------------------------|
G|-------------------------|
D|-2-----5-3-2-0-2---------|
A|-3-3-3-----------3-------|
D|---------------------5-5-|
    * *               * *
e|-------------------------------------------|--------------------|
B|-------------------------------------------|--------------------|
G|-------------------------------------------|--------------------|
D|-8---x-x-5-(5)-5-5-5-10----x-x-7-(7)-7-7-7-|------0--0--0S12\---|
A|-8-8-x-x-5-(5)-5-5-5-10-10-x-x-7-(7)-7-7-7-|-0-0--0--0--0S12\---|
D|-8-8-x-x-5-(5)-5-5-5-10-10-x-x-7-(7)-7-7-7-|-0-0--0--0--0S12\---|
    *                    *                    * *

e|--------------------------------|--------------------------|
B|--------------------------------|--------------------------|
G|--------------------------------|--------------------------|
D|--0-----3p2-0-0--------3p2-0-|-8-------------8-------------|
A|--0-0-0-3p2-0-0--0-0-0-3p2-0-|-8---------5---8----------5--|
D|--0-0-0-3p2-0-0--0-0-0-3p2-0-|-8-8-8-8-8---8-8--8-8-8-8----|
      * *          * * *           * * * *   *    * * * *
e|-------------------------|
B|-------------------------|
G|-------------------------|
D|-2-----5-3-2-0--2--------|
A|-3-3-3------------3------|
D|---------------------5-5-|
    * *               * *

Bridge
e|-10-11----------------------|-10-11-----------------------------|
B|-15-15----------------------|-15-15-----------------------------|
G|----------------------------|-----------------------------------|
D|----------------------------|-----------------------------------|
A|-------0-0--0--0-0-0--0-0-0-|-------0-0--0--0-0-0--0-0-0--0-0-0-|
D|-------0-0--0--0-0-0--0-0-0-|-------0-0--0--0-0-0--0-0-0--0-0-0-|


e|-10-11----------------------|-10-11----------------------|
B|-15-15----------------------|-15-15----------------------|
G|----------------------------|----------------------------|
D|----------------------------|----------------------------|
A|-------0-0--0--0-0-0--0-0-0-|-------0-0--0--0-0-0--0-0-0-|
D|-------0-0--0--0-0-0--0-0-0-|-------0-0--0--0-0-0--0-0-0-|

Pre-CHORUS?-dont kno wat else to call it
e|-----------|----------|----------|--------||
B|o----------|----------|----------|-------o||
G|-----------|----------|----------|--------||
D|--0--------|-8--------|-5--------|-10-----||
A|o-0--------|-8--------|-5--------|-10----o||
D|--0--------|-8--------|-5--------|-10-----||

Break-taken from xxMooneYxx.thanx dude
 Guitar Break#1
  N.C.
  Gtr 1
|-------------------------------------|------------------------------------|
|-------6-(6)-------6-----6-(6)-------|-------8-(8)-------8-----8-(8)------|
|-----7-------7-------7---------7-----|-------------7-------7---------7----|
|---7-----------7-------7---------7---|-----5---------5-------5---------5--|
|-5---------------5-----------------5-|---5-------------5-----------------5|
|-------------------------------------|-5----------------------------------|

| Gtr 2
|-5-----------------------------5-----|-6-----------------------5-----6----|
|-------------------6-----8-----------|-------------------8----------------|
|-------------------------------------|------------------------------------|
|-------------------------------------|------------------------------------|
|-------------------------------------|------------------------------------|
|-------------------------------------|------------------------------------|


  N.C.
|---------------------------------------|
|-------3---(3)-------3---------3-------|
|-----0---------0-------0---------0-----|
|---2-------------2-------2---------2---|
|-3-----------------3-------3---------3-|
|---------------------------------------|
|
|-----8---------------------------------|
|-5-6---5h6p=5----6-5-------------------|
|---------------7-----5-------5h7p==5---|
|---------------------------------------|
|---------------------------------------|
|---------------------------------------|


|-------0---(0)---------------3-(3)---0------|
|---------------2-----------------------2----|
|-----2-----------2---------0----------------|
|---2---------------2-----2---------------2--|
|-0---------------------4--------------------|
|--------------------------------------------|
|
|-------------------9------------------------|
|-------5-6--8--------8----------8--5--------|
|-----------------------9-----6-------6------|
|---------------------------------------5h7--|
|--------------------------------------------|
|--------------------------------------------|


  N.C.
|------------------------------------------|
|-------6---(6)--------6------6-(6)--------|
|-----7---------7--------7-----------7-----|
|---7-------------7--------7-----------7---|
|-5-----------------5--------------------5-|
|------------------------------------------|
|
|---------------------10-----12-----13-----|
|-3s5---5h6--5---------6------8-----10-----|
|---------------7--------------------------|
|------------------------------------------|
|------------------------------------------|
|------------------------------------------|


|------------------------------------------|
|--------8-(8)--------8------8-(8)---------|
|--------------7--------7-----------7------|
|------5---------5--------5-----------5----|
|----5-------------5--------------------5--|
|--5---------------------------------------|
|
|-10-----------------10-----12-----13------|
|-11-----------------11------8-----10------|
|------------------------------------------|
|------------------------------------------|
|------------------------------------------|
|------------------------------------------|


  N.C.
|--------------------------------------|
|--------3-(3)---------3-------3-------|
|------0-------0---------0-------0-----|
|----2-----------2---------2-------2---|
|--3---------------3---------3-------3-|
|--------------------------------------|
|
|-12-----------------------------------|
|--8---------------6-3-5---5-6-5---5-6-|
|------------------------7-------7-----|
|--------------------------------------|
|--------------------------------------|
|--------------------------------------|


|-------0-(0)---------------3-(3)------0------||
|-------------2--------------------------2----||
|-----2---------2--------0--------------------||
|---2-------------2----2--------------------2-||
|-0-----------------4-------------------------||
|---------------------------------------------||
|
|---5--------------------9-10--9h10p9---------||
|-8-----8-----5-----8-10----------------------||
|-----5----6----6---------------------10-9----||
|-----------------7------------------------11-||
|---------------------------------------------||
|---------------------------------------------||


Bridge #2

e|-------------------------------|---------------------------------|
B|-------------------------------|---------------------------------|
G|-------------------------------|---------------------------------|
D|-------------------------------|-5-------------------------------|
A|0-0-0-0-0-0-0-0-0-0-0-0-0-0-0-0|-5-5-5-5-5-5-5-5-5-5-5-5-5-5-5-5-|
D|0-0-0-0-0-0-0-0-0-0-0-0-0-0-0-0|-5-5-5-5-5-5-5-5-5-5-5-5-5-5-5-5-|
    * * * * * * * * * * * * * * *    * * * * * * * * * * * * * * * 

|----------------------------------------------|
|----------------------------------------------|
|----------------------------------------------|
|-10-------------------------------------------|
|-10-10-10-10-10-10-10-10-10-10-10-10-10-10-10-|
|-10-10-10-10-10-10-10-10-10-10-10-10-10-10-10-|
     *  *  *  *  *  *  *  *  *  *  *  *  *  *

first time             repeat     second time
|------------------------------||----------|
|------------------------------||----------|
|------------------------------||----------|
|------------------------------||----------|
|-3-------------7--------------||-8-8-10-10|
|-3-3-3-3-3-3-3-7-7-7-7-7-7-7--||-8-8-10-10|
    * * * * * * * * * * * * *


|---------------------------------------------------------|---------------||
|---------------------------------------------------------|---------------||
|---------------------------------------------------------|---------------||
|-12-12-x-x-x-x-12-12-x-x-x-x-12-12-x-x-x-x-12-12-x-x-x-x-|-8-8----10-10--||
|-12-12-x-x-x-x-12-12-x-x-x-x-12-12-x-x-x-x-12-12-x-x-x-x-|-8-8----10-10--||
|-12-12-x-x-x-x-12-12-x-x-x-x-12-12-x-x-x-x-12-12-x-x-x-x-|-8-8----10-10--||


Chorus
||------------------------------|--------------------------|
||o-----------------------------|--------------------------|
||--7---------------3-3-3-3-3-3-|-5-5-5-5-5-5--------------|
||--7---------------3-3-3-3-3-3-|-5-5-5-5-5-5-3-3---2-2-2--|
||o-5-5-5-7-8-7-5-0-1-1-1-1-1-1-|-3-3-3-3-3-3-3-3-0-3-3-3--|
||------------------------------|-------------3-3-0-2-2-2--|
first time
|-----------------------------|----------------------------||
|-----------------------------|---------------------------o||
|-7---------------3-3-3-3-3-3-|-5-5-5-5-5-5-10-10---5-5-5--||
|-7---------------3-3-3-3-3-3-|-5-5-5-5-5-5-10-10-0-5-5-5--||
|-5-5-5-7-8-7-5-0-1-1-1-1-1-1-|-3-3-3-3-3-3--8--8-0-3-3-3-o||
|-----------------------------|----------------------------||
second time
|-----------------------------|----------------------|-----||
|-----------------------------|----------------------|-----||
|-7---------------3-3-3-3-3-3-|-5-5-5-5-2-5-7-(7)\---|-----||
|-7---------------3-3-3-3-3-3-|-5-5-5-5-2-5-7-(7)\---|-----||
|-5-5-5-7-8-7-5-0-1-1-1-1-1-1-|-3-3-3-3-0-3-5-(5)\---|-----||
|-----------------------------|----------------------|-----||

Gtr I
||----------------------------|-------------------------------|
||o---------------------------|-------------------------------|
||--7-7-x-5-5-x--3--3-x-2-2-x-|-3-3-3-3-3-3--3--3--3--3--3--3-|
||--x-x-x-x-x-x--x--x-x-x-x-x-|-x-x-x-x-x-x--x--x--x--x--x--x-|
||o-5-5-x-3-3-x--1--1-x-0-0-x-|-1-1-1-1-1-1--1--1--1--1--1--1-|
||----------------------------|-------------------------------|
|
|   Gtr II
||----------------------------|-------------------------------|
||o---------------------------|-------------------------------|
||--7-7-x-9-9-x-10-10-x-9-9-x-|-3-3-3S7-7-7S10-10-10S15-15-15-|
||--x-x-x-x-x-x--x--x-x-x-x-x-|-x-x-xSx-x-xS=x--x--xS=x--x--x-|
||o-5-5-x-7-7-x--8--8-x-7-7-x-|-1-1-1S5-5-5S=8--8--8S13-13-13-|
||----------------------------|-------------------------------|


|--------------------------------||
|-------------------------------o||
|-2-2-2S=6--6-6S9-9-9S14-14-14---||
|-x-x-xS=x--x-xSx-x-xS=x--x--x---||
|-0-0-0S=4--4-4S7-7-7S12-12-12--o||
|--------------------------------||
|
|--------------------------------||
|-------------------------------o||
|-2-2---(2)----------------------||
|-2-2---(2)----------------------||
|-0-0---(0)---------------------o||
|--------------------------------||


|------------------------|---------------------|----------|--------||
|------------------------|---------------------|----------|--------||
|-9-9-----9-9----(9)-10\-|-7-7-7--7-----(7)-9\-|-6--------|-(6)----||
|-x-x-----x-x---------x--|-x-x-x--x---------x--|-x--------|--------||
|-7-7-----7-7----(7)--8\-|-5-5-5--5-----(5)-7\-|-4--------|-(4)----||
|------------------------|---------------------|----------|--------||
|
|------------------------|---------------------|----------|--------||
|------------------------|---------------------|----------|--------||
|-5-5-(5)-------------5\-|-3-3---(3)-----------|-2--------|--6-----||
|-5-5-(5)-------------5\-|-3-3---(3)-----------|-2--------|--x-----||
|-3-3-(3)-------------3\-|-1-1---(1)-----------|-0--------|--4-----||
|------------------------|---------------------|----------|--------||

Interlude

|------------|----------|------------|------||
|------------|----------|------------|------||
|------------|----------|------------|------||
|-0----------|-0--------|-0----------|-0----||
|-0------0-0-|-0--------|-0------0-0-|-0----||
|-0------0-0-|-0--------|-0------0-0-|-0----||


  D5
                  PM|
|---------------------|-------------------|
|----/3---------------|----/3-------------|
|---------3---2-------|---------3---2-----|
|-0--(0)-(0)-(0)------|-0--(0)-(0)-(0)----|
|-0--(0)-(0)-(0)--0-0-|-0--(0)-(0)-(0)----|
|-0--(0)-(0)-(0)--0-0-|-0--(0)-(0)-(0)----|


                  PM|
|---------------------|-------------------|
|----/3---------------|----/3-------------|
|---------3---2-------|---------3---2-----|
|-0--(0)-(0)-(0)------|-0--(0)-(0)-(0)----|
|-0--(0)-(0)-(0)--0-0-|-0--(0)-(0)-(0)----|
|-0--(0)-(0)-(0)--0-0-|-0--(0)-(0)-(0)----|


  D5
  Gtr I
                  PM|
|---------------------|-------------------|
|----/3---------------|----/3-------------|
|---------3---2-------|---------3---2-----|
|-0--(0)-(0)-(0)------|-0--(0)-(0)-(0)----|
|-0--(0)-(0)-(0)--0-0-|-0--(0)-(0)-(0)----|
|-0--(0)-(0)-(0)--0-0-|-0--(0)-(0)-(0)----|
|
| Gtr II
|                 PM|
|---------------------|-------------------|
|----/6---------------|----/6-------------|
|---------7---6-------|---------7---6-----|
|-0--(0)-(0)-(0)------|-0--(0)-(0)-(0)----|
|-0--(0)-(0)-(0)--0-0-|-0--(0)-(0)-(0)----|
|-0--(0)-(0)-(0)--0-0-|-0--(0)-(0)-(0)----|


                  PM|
|---------------------|-------------------||
|----/3---------------|----/3-------------||
|---------3---2-------|---------3---2-----||
|-0--(0)-(0)-(0)------|-0--(0)-(0)-(0)----||
|-0--(0)-(0)-(0)--0-0-|-0--(0)-(0)-(0)----||
|-0--(0)-(0)-(0)--0-0-|-0--(0)-(0)-(0)----||
|
|                 PM|
|---------------------|-------------------||
|----/6---------------|----/6-------------||
|---------7---6-------|---------7---6-----||
|-0--(0)-(0)-(0)------|-0--(0)-(0)-(0)----||
|-0--(0)-(0)-(0)--0-0-|-0--(0)-(0)-(0)----||
|-0--(0)-(0)-(0)--0-0-|-0--(0)-(0)-(0)----||



Breakdown
  D5 Eb5E5 F5   D5 Eb5E5 F5   D5 Eb5E5 F5   D5 Eb5E5 F5
  Gtrs I, II
|-------------|-------------|-------------|-------------||
|-------------|-------------|-------------|-------------||
|-------------|-------------|-------------|-------------||
|-0--1--2--3--|-0--1--2--3--|-0--1--2--3--|-0--1--2--3--||
|-0--1--2--3--|-0--1--2--3--|-0--1--2--3--|-0--1--2--3--||
|-0--1--2--3--|-0--1--2--3--|-0--1--2--3--|-0--1--2--3--||


   Bridge
    D5
    Gtr I
||--------------------------------------------------|
||o------/10-/10---------------10-------------------|
||---------------12-10-12-(12)----10-(10)-----------|
||--12----------------------------------------------|
||o-------------------------------------------------|
||--------------------------------------------------|
|
|   Gtr II
||--------------------------------------------------|
||o-------/6--/6--5-----5--(5)--6-------------------|
||-------------------7-------------7--(7)-----------|
||---7----------------------------------------------|
||o-------------------------------------------------|
||--------------------------------------------------|
|
|   Gtr III
|    PM|                        PM-------------------
||--------------------------------------------------|
||o-------------------------------------------------|
||--------------------------------------------------|
||--------------------------------------------------|
||o--0-0------------------------0--0---0--0-0-0-0-0-|
||---0-0------------------------0--0---0--0-0-0-0-0-|


  Bb5
|-----------------------------------------------------|
|---------/11-/11-10----10-(10)-11--------------------|
|--------------------12------------12-(12)------------|
|-----------------------------------------------------|
|-----------------------------------------------------|
|-----------------------------------------------------|
|
|-----------------------------------------------------|
|----------/8--/8--6--5--6--(6)--8--5--(5)------------|
|-----------------------------------------------------|
|-----------------------------------------------------|
|-----------------------------------------------------|
|-----------------------------------------------------|
|
|-------|                        PM----------------|
|-----------------------------------------------------|
|-----------------------------------------------------|
|-----------------------------------------------------|
|-----------8-----------------------------------------|
|-8-8-8-8---8--------------------8--8---8--8-8-8-8-8--|
|-8-8-8-8---8--------------------8--8---8--8-8-8-8-8--|


  C5
|-------------------------------------------------------------|
|-------------/13-/13-11-10-11-(11)-13-10-(10)----------------|
|-------------------------------------------------------------|
|-------------------------------------------------------------|
|-------------------------------------------------------------|
|-------------------------------------------------------------|
|
|-------------------------------------------------------------|
|-------------/10-/10--8--6--8--(8)-10--6--(6)----------------|
|-------------------------------------------------------------|
|-------------------------------------------------------------|
|-------------------------------------------------------------|
|-------------------------------------------------------------|
|
|  PM------|                         PM------------------------
|-------------------------------------------------------------|
|-------------------------------------------------------------|
|-------------------------------------------------------------|
|--------------10---------------------------------------------|
|-10-10-10-10--10-------------------10-10--10--10-10-10-10-10-|
|-10-10-10-10--10-------------------10-10--10--10-10-10-10-10-|


  F5                             C/E
|---------------------------------------------------------------||
|-/13---11---10---11---10--------10----------------------------o||
|---------------------------12--------12---10---12---10---9-----||
|---------------------------------------------------------------||
|--------------------------------------------------------------o||
|---------------------------------------------------------------||
|
|---------------------------------------------------------------||
|-/10----8----6----8----6----5----6----5---------5-------------o||
|-------------------------------------------7---------7---5-----||
|---------------------------------------------------------------||
|--------------------------------------------------------------o||
|---------------------------------------------------------------||
|
|-----------------------------------------------------------|
|---------------------------------------------------------------||
|--------------------------------------------------------------o||
|---------------------------------------------------------------||
|---------------------------------------------------------------||
|---3-3----3----3--3-3----3----3--3-3----3----3--3-3----3---3--o||
|---3-3----3----3--3-3----3----3--2-2----2----2--2-2----2---2---||


Guitar break#2
GUITAR 1
e|--------------------------------|--------------------------------|
B|--------------------------------|--------------------------------|
G|--------------------------------|--------------------------------|
D|0-0-0-0-0-0-0-0-0-0-0-0-0-0-0-0-|5-5-5-5-5-5-5-5-5-5-5-5-5-5-5-5-|
A|0-0-0-0-0-0-0-0-0-0-0-0-0-0-0-0-|5-5-5-5-5-5-5-5-5-5-5-5-5-5-5-5-|
D|0-0-0-0-0-0-0-0-0-0-0-0-0-0-0-0-|5-5-5-5-5-5-5-5-5-5-5-5-5-5-5-5-|

e|------------------------------------------------|
B|------------------------------------------------|
G|------------------------------------------------|
D|10-10-10-10-10-10-10-10-10-10-10-10-10-10-10-10-|
A|10-10-10-10-10-10-10-10-10-10-10-10-10-10-10-10-|
D|10-10-10-10-10-10-10-10-10-10-10-10-10-10-10-10-|

e|--------------------------------|
B|--------------------------------|
G|--------------------------------|
D|3-3-3-3-3-3-3-3-7-7-7-7-7-7-7-7-| X3
A|3-3-3-3-3-3-3-3-7-7-7-7-7-7-7-7-|
D|3-3-3-3-3-3-3-3-7-7-7-7-7-7-7-7-|

GUITAR 2 PLAYS WHAT IT PLAYS DURING GUITAR BREAK #1

OUTRO

  Gtrs I, II
||--------------------------------------------|
||o-------------------------------------------|
||--------------------------------------------|
||---0--0--0--0--0--0--0--0--0--0--0--0--0--0-|
||o--0--0--0--0--0--0--0--0--0--0--0--0--0--0-|
||---0--0--0--0--0--0--0--0--0--0--0--0--0--0-|
|
|   Gtr III
||--------------------------------------------|
||o-------------------------------------------|
||--14-14-14-14-14-14-14-14-14-14-14s17-17-17-|
||---x--x--x--x--x--x--x--x--x--x--x-----x--x-|
||o-12-12-12-12-12-12-12-12-12-12-12s15-15-15-|
||--------------------------------------------|


  G5
|--------------------------------------------------|
|--------------------------------------------------|
|--------------------------------------------------|
|--5-----5--5--5--5--5--5--5-----5--5--5--5--5--5--|
|--5-----5--5--5--5--5--5--5-----5--5--5--5--5--5--|
|--5-----5--5--5--5--5--5--5-----5--5--5--5--5--5--|
|
|--------------------------------------------------|
|--------------------------------------------------|
|-17s15-15-15-15s14-14s12-12-12-12-12-12-10-10-10--|
|--x-----x--x--x-----x-----x--x--x--x--x--x--x--x--|
|-15s13-13-13-13s12-12s10-10-10-10-10-10--8--8--8--|
|--------------------------------------------------|


|-------------------------------------------------|-----------------|
|-------------------------------------------------|-----------------|
|-------------------------------------------------|-----------------|
|-10----10-10-10-10-10-10-10----10-10-10-10-10-10-|-7-7-7-7-7-7-7-7-|
|-10----10-10-10-10-10-10-10----10-10-10-10-10-10-|-7-7-7-7-7-7-7-7-|
|-10----10-10-10-10-10-10-10----10-10-10-10-10-10-|-7-7-7-7-7-7-7-7-|
|
|-------------------------------------------------|-----------------|
|-------------------------------------------------|-----------------|
|-10s12-12-12-12s10-10s=9-(9)-9--9--9--9s=7--7s=5-|-6---------------|
|--x-----x--x--x-----x--------x--x--x--x-----x----|-x---------------|
|--8s10-10-10-10s=8--8s=7-(7)-7--7--7--7s=5--5s=3-|-4---------------|
|-------------------------------------------------|-----------------|


 Gtrs I, II
|-----------------|-----------------|----------|------------|--------||
|-----------------|-----------------|----------|------------|--------||
|-----------------|-----------------|----------|------------|--------||
|-1-1-1-1-1-1-1-1-|-3-3-3-3-3-3-3-3-|-0--------|-(0)--------|-(0)----||
|-1-1-1-1-1-1-1-1-|-3-3-3-3-3-3-3-3-|-0--------|-(0)--------|-(0)----||
|-1-1-1-1-1-1-1-1-|-3-3-3-3-3-3-3-3-|-0--------|-(0)--------|-(0)----||


8x
||----------------------------------|----------------------------------||
||o---------------------------------|---------------------------------o||
||----------------------------------|----------------------------------||
||----------------------------------|----------------------------------||
||o-0-0-0-0-0-0-0-0-0-0-0-0-0-0-0-0-|-0-0-0-0-0-0-0-0-0-0-0-0-0-0-0-0-o||
||--0-0-0-0-0-0-0-0-0-0-0-0-0-0-0-0-|-0-0-0-0-0-0-0-0-0-0-0-0-0-0-0-0--||




									


911Tabs.com - tabs search engine
More "Remenissions" tabs @ 911Tabs

A Guide to Tab NotationGuitar TabsGuitar ResourcesGuitar TabsPrivacy PolicyGuitar TabsContact

Online Guitar Lessons

Avenged Sevenfold Guitar Tabs - Over 200,000 chords, guitar and bass tabs with video. Find tabs, video guitar lessons and more.