Music Guitar Tab, Tabs with MP3, ringtones, ringtone, concert tickets, guitar lessons, guitar tabs easy, guitar hero

Guitar Tabs Guitar Chords Bass Tabs
 Web Guitar Tabs
Guitar Lessons
 
Lyrics abcdefghijklmnopqrstuvwxyz # Top 100 Lyrics

Guitar Tabs
Guitar Tab






click on, click off


Tab for "Remenissions" - Avenged Sevenfold Rating 4Print Guitar Tabs
select alternative YouTube videos below...
Tweak the search term to refine the YouTube video results:         
Share on Facebook

Learn to play this song and others via online guitar lessons @ JamPlay.com!

e|---------------------------------------------------------------------------|
B|---------------------------------------------------------------------------|
G|---------------------------------------------------------------------------|
D|-0-----------0----------00000-------0--------------------------------------|
A|-0------5--3------------00000--5--1----------------------------------------|
D|-0-3v-0--------8-7-5-3--00000----------------------------------------------|

e|---------------------------------------------------------------------------|
B|---------------------------------------------------------------------------|
G|--------------------------------2--------------------------2---------------|
D|-0-2-3-7-5-3-2-0-----0-2-5--------0-2-5-8-3-0---000---2--------------------|
A|-----------------4-5-------4-0----------------1-----5---4------------------|
E|---------------------------------------------------------------------------|

e|---------------------------------------------------------------------------|
B|---------------------------------------------------------------------------|
G|-----------------------------2-----2-7-------------------------------------|
D|-0-2-3-7-5-3-2-0-------3-------0-3-----8-----3-0-2-2---7b------------------|
A|-----------------4-5-7---4-0-------------8-5---------3---------------------|
E|---------------------------------------------------------------------------|

e|-------5----------------|
B|-------5--------10------|
G|-------9--------9-------|
D|-00-0--7--00-0--8-------|
A|-00-0-----00-0--7-------|
E|-00-0-----00-0----------|


e|---------------------------------------------------------------------------|
B|---------------------------------------------------------------------------|
G|---------------------------------------------------------------------------|2x
D|-0----3p2---0-0----3p2---8--------8--------2-5-3-2-0-2---8-x-5-10-X-7------|
A|-0-00-3p2-0-0-0-00-3p2-0-8--------8-888----3-----------3-8-x-5-10-X-7------|
E|-0-00-3p2-0-0-0-00-3p2-0-8-888-12-8-888-12---------------8-x-5-10-X-7------|

e|-----------------|
B|-----------------|
G|-----------------|
D|-0-0-0-0---------|
A|-0-0-0-0---------|
E|-0-0-0-0---------|

e|---------------------------------------------------------------------------|
B|---------------------------------------------------------------------------|
G|---------------------------------------------------------------------------|2x
D|-0----3p2---0-0----3p2---8--------8--------2-5-3-2-0-2---8-x-5-10-X-7------|
A|-0-00-3p2-0-0-0-00-3p2-0-8--------8-888----3-----------3-8-x-5-10-X-7------|
E|-0-00-3p2-0-0-0-00-3p2-0-8-888-12-8-888-12---------------8-x-5-10-X-7------|


e|-12-13------------------|
B|-16-17------------------|
G|------------------------|
D|------------------------|
A|-------00-0-000-000-----|
E|-------00-0-000-000-----|

e|---------------------------------------------------------------------------|
B|---------------------------------------------------------------------------|
G|---------------------------------------------------------------------------|
D|--0------8-----5-----10----------------------------------------------------|
A|--0------8-----5-----10----------------------------------------------------|
E|--0------8-----5-----10----------------------------------------------------|


e|-5-----------------10-----------------------------------------3--8-5-------|
B|-6---6-8-10------11---8-10-11------11--------6-5--------------6------6-----|
G|-7-------------12--------------------------5----------5/7---5-5------------|
D|-7-7---------12-----------------14---15--------------------7---------------|
A|-----------10-----------------15---------8-------3-3------8----------------|
E|---------------------------------------------------------------------------|

e|-------------------------------13-12-------------------------------------9-|
B|-/5-6-5h6p5-------8-10-11-/13-----------------------------------6-5-8-10---|
G|------------5/-7-----------------------------------------------------------|
D|-------------------------------------------15-14-12-14-15-----7------------|
A|-----------------------------------------15---------------15-8-------------|
E|--------------------------------------17-----------------------------------|

e|---------------------------------------------------------------------------|
B|---------------------------------------------------------------------------|
G|---------------------------------------------------------------------------|
D|--0-----5-----10-----3---7-----0-----5-----10----8--10---------------------|
A|--0-----5-----10-----3---7-----0-----5-----10----8--10---------------------|
E|--0-----5-----10-----3---7-----0-----5-----10----8--10---------------------|

e|---------------------------------------------------------------------------|
B|---------------------------------------------------------------------------|
G|--77-77-77-77--------------------------3----5------------------------------|
D|--77-77-77-77--88---1010--00-2-3-2-0---3----5----3-3-----------------------|
A|--55-55-55-55--88---1010-------------0-1----3----3-3-----------------------|
E|---------------88---1010-------------------------3-2-----------------------|

e|---------------------------------------------------------------------------|
B|---------------------------------------------------------------------------|
G|--------------3---5--5-2-5-7----7--9-10--9---3---7-10-15---7-9--14---------|
D|-00-2-3-2-0---3---5--5-2-5-7----------------------------------------2x-----|
A|------------0-1---3--3-0-3-5----5--7--8--7---1---5--8-13---5-7--12---------|
E|---------------------------------------------------------------------------|

e|---------------------------------------|
B|---------------------------------------|
G|-9-10/-7---9-3-------------------------|
D|-----------------0----0-0----0---------|
A|-7--8/-5---7-1---0-00-0-0-00-0---------|
E|-----------------0-00-0-0-00-0---------|

e|-1--------|
B|---3-2----|
G|----------|
D|----------|
A|----------|
E|----------|

e|--------------|
B|--------------|
G|--------------|
D|-0-1-2-3------|
A|-0-1-2-3------|
E|-0-1-2-3------|

play the rist note of every littel part stacato

e|-1-1p0---0-1---/5-3-1-0-1-3-0-/8-8p6-5-3-5-1-8-6-5-6-5-3-5-3-1-------------|
B|-------3-----3--------------------------------------------------5-3--------|
G|--------------------------------------------------------------------5------|
D|---------------------------------------------------------------------------|
A|---------------------------------------------------------------------------|
E|---------------------------------------------------------------------------|

e|---------------------------------------------------------------------------|
B|---------------------------------------------------------------------------|
G|---------------------------------------------------------------------------|
D|-00--0000--00--88-8888-88-1010-10101010-1010-33333-33333-------------------|
A|-00--0000--00--88-8888-88-1010-10101010-1010-33333-33333-------------------|
E|-00--0000--00--88-8888-88-1010-10101010-1010-33333-22222-------------------|

e|-5-----------------10-----------------------------------------3--8-5-------|
B|-6---6-8-10------11---8-10-11------11--------6-5--------------6------6-----|
G|-7-------------12--------------------------5----------5/7---5-5------------|
D|-7-7---------12-----------------14---15--------------------7---------------|
A|-----------10-----------------15---------8-------3-3------8----------------|
E|---------------------------------------------------------------------------|

e|-------------------------------13-12-------------------------------------9-|
B|-/5-6-5h6p5-------8-10-11-/13-----------------------------------6-5-8-10---|
G|------------5/-7-----------------------------------------------------------|
D|-------------------------------------------15-14-12-14-15-----7------------|
A|-----------------------------------------15---------------15-8-------------|
E|--------------------------------------17-----------------------------------|

e|---------------------------------------------------------------------------|
B|---------------------------------------------------------------------------|
G|---------------------------------------------------------------------------|
D|--0-----5-----10-----3---7-----0-----5-----10----8--10---------------------|
A|--0-----5-----10-----3---7-----0-----5-----10----8--10---------------------|
E|--0-----5-----10-----3---7-----0-----5-----10----8--10---------------------|

e|---------------------------------------------------------------------------|
B|---------------------------------------------------------------------------|
G|-14--17/15-15/14-14/12-10/-12-10/-9-10-14----------------------------------|
D|------------------------------------------2x----88888888-333333333-0-------|
A|-12--15-13-13-12-12-10--8/-10--8/-7--8-12-------88888888-333333333-0-------|
E|------------------------------------------------88888888-333333333-0-------|
									


911Tabs.com - tabs search engine
More "Remenissions" tabs @ 911Tabs

A Guide to Tab NotationGuitar TabsGuitar ResourcesGuitar TabsPrivacy PolicyGuitar TabsContact

Online Guitar Lessons

Avenged Sevenfold Guitar Tabs - Over 200,000 chords, guitar and bass tabs with video. Find tabs, video guitar lessons and more.