Music Guitar Tab, Tabs with MP3, ringtones, ringtone, concert tickets, guitar lessons, guitar tabs easy, guitar hero

Guitar Tabs Guitar Chords Bass Tabs
 Web Guitar Tabs
Guitar Lessons
 
Lyrics abcdefghijklmnopqrstuvwxyz # Top 100 Lyrics

Guitar Tabs
Guitar Tab






click on, click off


Tab for "Radiant Eclipse Intro" - Avenged Sevenfold Rating 4Print Guitar Tabs
select alternative YouTube videos below...
Tweak the search term to refine the YouTube video results:         
Share on Facebook

Learn to play this song and others via online guitar lessons @ JamPlay.com!

first tab eva!

drop c tuning (d a f c g c)

sounds right to me... if it doesnt then just tell me and ill try to fix it

ends at 1:32

d|-----------------------------------------------------------------|
a|-10--------------10----------10--9---------------9---------------|
f|-----7-------7-------7---------------7-------7-------7-------7---|
c|---------7---------------7---------------7---------------7-------|
g|-----------------------------------------------------------------|
c|-----------------------------------------------------------------|

d|-----------------------------------------------------------------|
a|-10--------------10----------10--9---------------9---------------|
f|-----7-------7-------7---------------7-------7-------7-------7---|
c|---------7---------------7---------------7---------------7-------|
g|-----------------------------------------------------------------|
c|-----------------------------------------------------------------|

d|-----------------------------------------------------------------|
a|-10--------------10----------10--9---------------9---------------|
f|-----7-------7-------7---------------7-------7-------7-------7---|
c|---------7---------------7---------------7---------------7-------|
g|-----------------------------------------------------------------|
c|-----------------------------------------------------------------|
 |                                                                 |
d|-----------------------------------------------------------------|
a|-----------------------------------------------------------------|
f|-----------------------------------------------------------------|
c|-----------------------------------------------------------1-----|
g|-0-0-0-------------------------------0-0-0-----------0-0-0-1-----|
c|-0-0-0-------------------------------0-0-0-----------0-0-0-1-----|
   pm=======================================================>

d|-----------------------------------------------------------------|
a|-10--------------10----------10--9---------------9---------------|
f|-----7-------7-------7---------------7-------7-------7-------7---|
c|---------7---------------7---------------7---------------7-------|
g|-----------------------------------------------------------------|
c|-----------------------------------------------------------------|
 |                                                                 |
d|-----------------------------------------------------------------|
a|-----------------------------------------------------------------|
f|-----------------------------------------------------------------|
c|-----------------------------------------------------------1-----|
g|-0-0-0-------------------------------0-0-0-----------0-0-0-1-----|
c|-0-0-0-------------------------------0-0-0-----------0-0-0-1-----|
   pm=======================================================>

d|-----------------------------------------------------------------|
a|-10--------------10----------10--9---------------9---------------|
f|-----7-------7-------7---------------7-------7-------7-------7---|
c|---------7---------------7---------------7---------------7-------|
g|-----------------------------------------------------------------|
c|-----------------------------------------------------------------|
 |                                                                 |
d|-----------------------------------------------------------------|
a|-----------------------------------------------------------------|
f|-----------------------------------------------------------------|
c|---------0-------------------------------------------------1-----|
g|-0-0-0---0---------------------------0-0-0-----------0-0-0-1-----|
c|-0-0-0---0---------------------------0-0-0-----------0-0-0-1-----|
   pm===>                              pm===================>

d|-----------------------------------------------------------------|
a|-10--------------10----------10--9---------------9---------------|
f|-----7-------7-------7---------------7-------7-------7-------7---|
c|---------7---------------7---------------7---------------7-------|
g|-----------------------------------------------------------------|
c|-----------------------------------------------------------------|
 |
d|-----------------------------------------------------------------|
a|-----------------------------------------------------------------|
f|-----------------------------------------------------------------|
c|-------------------------------------------------------------1---|
g|-0-0-0-------------------------------0-0-0-----------0-0-0-111---|
c|-0-0-0-------------------------------0-0-0-----------0-0-0-111---|
   pm==========================================================>
                                                 
d|-----------------------------------------------------------------|
a|-10--------------10----------10--9---------------9---------------|
f|-----7-------7-------7---------------7-------7-------7-------7---|
c|---------7---------------7---------------7---------------7-------|
g|-----------------------------------------------------------------|
c|-----------------------------------------------------------------|
 |                                                                 |
d|-----------------------------------------------------------------|
a|-----------------------------------------------------------------|
f|-----------------------------------------------------------------|
c|-----------------------------------------------------------------|
g|-000-0-0-0-0-000-000-0-0-11111111000-0-0-0-0-000-000-0-0-11111111|
c|-000-0-0-0-0-000-000-0-0-11111111000-0-0-0-0-000-000-0-0-11111111|
   pm==============================================================>

d|-----------------------------------------------------------------|
a|-10--------------10----------10--9---------------9---------------|
f|-----7-------7-------7---------------7-------7-------7-------7---|
c|---------7---------------7---------------7---------------7-------|
g|-----------------------------------------------------------------|
c|-----------------------------------------------------------------|
 |                                                                 |
d|-----------------------------------------------------------------|
a|-----------------------------------------------------------------|
f|-----------------------------------------------------------------|
c|-----------------------------------------------------------------|
g|-000-0-0-0-0-000-000-0-0-11111111000-0-0-0-0-000-000-0-0-11111111|
c|-000-0-0-0-0-000-000-0-0-11111111000-0-0-0-0-000-000-0-0-11111111|
   pm==============================================================>

d|-----------------------------------------------------------------|
a|-10--------------10----------10--9---------------9---------------|
f|-----7-------7-------7---------------7-------7-------7-------7---|
c|---------7---------------7---------------7---------------7-------|
g|-----------------------------------------------------------------|
c|-----------------------------------------------------------------|
 |                                                                 |
d|-----------------------------------------------------------------|
a|-----------------------------------------------------------------|
f|-----------------------------------------------------------------|
c|-----------------------------------------------------------------|
g|-000-0-0-0-0-000-000-0-0-11111111000-0-0-0-0-000-000-0-0-11111111|
c|-000-0-0-0-0-000-000-0-0-11111111000-0-0-0-0-000-000-0-0-11111111|
   pm==============================================================>

d|-----------------------------------------------------------------|
a|-10--------------10----------10--9---------------9---------------|
f|-----7-------7-------7---------------7-------7-------7-------7---|
c|---------7---------------7---------------7---------------7-------|
g|-----------------------------------------------------------------|
c|-----------------------------------------------------------------|
 |                                                                 |
d|-----------------------------------------------------------------|
a|-----------------------------------------------------------------|
f|-----------------------------------------------------------------|
c|-----------------------------------------------------------------|
g|-000-0-0-0-0-000-000-0-0-11111111000-0-0-0-0-0-0-0-0-0-0-11111111|
c|-000-0-0-0-0-000-000-0-0-11111111000-0-0-0-0-0-0-0-0-0-0-11111111|
   pm==============================================================>

d|-----------------------------------------------------------------|
a|-10------------------8-101110--8-10------------------8-101110--8-|
f|-7-------------------5-7-8-7---5-7-------------------5-7-8-7---5-|
c|-----------------------------------------------------------------|
g|-----------------------------------------------------------------|
c|-----------------------------------------------------------------|
 |
d|-----------------------------------------------------------------|
a|-----------------------------------------------------------------|
f|-----------------------------------------------------------------|
c|-----------------------------------------------------------------|
g|-000---------000-000-----11111111000---------000-000-----11111111|
c|-000---------000-000-----11111111000---------000-000-----11111111|
   pm==============================================================>

d|-----------------------------------------------------------------|
a|-5-----6-------------8-101110--8-10------------------8-101110--8-|
f|-2-----3-------------5-7-8-7---5-7-------------------5-7-8-7---5-|
c|-----------------------------------------------------------------|
g|-----------------------------------------------------------------|
c|-----------------------------------------------------------------|
 |
d|-----------------------------------------------------------------|
a|-----------------------------------------------------------------|
f|-----------------------------------------------------------------|
c|-----------------------------------------------------------------|
g|-000---------000-000-----11111111000---------000-000-----11111111|
c|-000---------000-000-----11111111000---------000-000-----11111111|
   pm==============================================================>
									


911Tabs.com - tabs search engine
More "Radiant Eclipse Intro" tabs @ 911Tabs

A Guide to Tab NotationGuitar TabsGuitar ResourcesGuitar TabsPrivacy PolicyGuitar TabsContact

Online Guitar Lessons

Avenged Sevenfold Guitar Tabs - Over 200,000 chords, guitar and bass tabs with video. Find tabs, video guitar lessons and more.