Music Guitar Tab, Tabs with MP3, ringtones, ringtone, concert tickets, guitar lessons, guitar tabs easy, guitar hero

Guitar Tabs Guitar Chords Bass Tabs
 Web Guitar Tabs
Guitar Lessons
 
Lyrics abcdefghijklmnopqrstuvwxyz # Top 100 Lyrics

Guitar Tabs
Guitar Tab






click on, click off


Tab for "Radiant Eclipse" - Avenged Sevenfold Rating 4Print Guitar Tabs
select alternative YouTube videos below...
Tweak the search term to refine the YouTube video results:         
Share on Facebook

Learn to play this song and others via online guitar lessons @ JamPlay.com!

Tabbed By: Chris
Email:Chrisqsda@yahoo.com

This song is definately played in drop C tuning. You can look it up in wikipedia and it 
tell you there.

Song:Radiant Eclipse
Album:Waking the Fallen

Intro
Bass and rythym guitar come in at 0:15. It is all just a bunch of open 0s on the low C 
Just figure out the the rythym.

Main Riff (1:34)
F-----------------------------------------------|
C-----------------------------------------------|
G-----------------------------------------------| X8
C-0-3-0-5-6-7-0-0000-0000-----------------------|

Last time play it like this...
F-----------------------------------------------|
C-----------------------------------------------|
G-----------------------------------------------|
C-0-3-0-567-0-----------------------------------|

Bridge (2:03)
F-----------------------------------------------|
C-----------------------------------------------|
G-5557-77-3335-55-1114-44-5557-77---------------| X2
C-----------------------------------------------|

Verse 2 (2:18)
F-----------------------------------------------|
C-----------------------------------------------|
G-----------------------------------------------|
C-3-00-00-00000-3-0-5-0-6-3-00-00---------------|

Play this only from 2:20 to 2:33 except
when you get to 2:33 don\'t play the last two pairs of 0s
and play what i posted for the next part
F------------------------------------------------|
C------------------------------------------------|
G------------------------------------------------|
C-00000-3-0-5-0-6-3-00-00------------------------|

2:33 play till 2:41
F------------------------------------------------|
C------------------------------------------------|
G------------------------------------------------|
C-6-3-0-0-3-5-6-3--------------------------------|

Main riff (2:41)
F-------------------------------------------------|
C-------------------------------------------------|
G-------------------------------------------------|
C-00000---0-0000-0000--0-3-0-5-6-7-0-0000-0000----|

Pre-Chorus (3:00)
F-------------------------------------------------|
C-------------------------------------------------|
G-5-8-7-------------------------------------------| X4
C-------7-8---------------------------------------|

Chorus
F-------------------------------------------------|
C-------------------------------------------------|
G-55555555----------33333333----------------------| X4
C----------55555555----------55555555-------------|

Big riff (3:47)
F-------------------------------------------------|
C-------------------------------------------------|
G-------------------------------------------------| X8
C-053023076053031---------------------------------|

And thats basically the whole song, Have fun playing it, and remember Otto spelled 
is still Otto!
									


911Tabs.com - tabs search engine
More "Radiant Eclipse" tabs @ 911Tabs

A Guide to Tab NotationGuitar TabsGuitar ResourcesGuitar TabsPrivacy PolicyGuitar TabsContact

Online Guitar Lessons

Avenged Sevenfold Guitar Tabs - Over 200,000 chords, guitar and bass tabs with video. Find tabs, video guitar lessons and more.