Music Guitar Tab, Tabs with MP3, ringtones, ringtone, concert tickets, guitar lessons, guitar tabs easy, guitar hero

Guitar Tabs Guitar Chords Bass Tabs
 Web Guitar Tabs
Guitar Lessons
 
Lyrics abcdefghijklmnopqrstuvwxyz # Top 100 Lyrics

Guitar Tabs
Guitar Tab






click on, click off


Tab for "Radiant Eclipse" - Avenged Sevenfold Rating 4Print Guitar Tabs
select alternative YouTube videos below...
Tweak the search term to refine the YouTube video results:         
Share on Facebook

Learn to play this song and others via online guitar lessons @ JamPlay.com!

RADIANT ECLIPSE
As recorded by Avenged Sevenfold
(From the 2003 Album WAKING THE FALLEN)

Words by M. Shadows Music by Avenged Sevenfold
Arranged by Avenged Sevenfold

 Intro
  Q=62
  N.C.
 4/4
  Gtr I
   E  E  E  E  E  E  E  E   E  E  E  E E  E  E  E
|-------------------------|-----------------------|
|-10----------10-------10-|-9----------9----------|
|-------------------------|-----------------------|
|----12----12----12-------|---12----12---12----12-|
|-------12----------12----|------12---------12----|
|-------------------------|-----------------------|


   E  E  E  E  E  E  E  E   E  E  E  E E  E  E  E
|-------------------------|------------------------|
|-10----------10-------10-|-9----------9-----------|
|-------------------------|------------------------|
|----12----12----12-------|---12----12---12----12--|
|-------12----------12----|------12---------12-----|
|-------------------------|------------------------|


    D5                                                  Eb5
     E    E  E   E  E  E  E  E   E  E    E  E E  E    E     E
||-----------------------------|-------------------------------||
||o-10-------------10-------10-|-9------------9---------------o||
||-----------------------------|-------------------------------||
||-------12-----12----12-------|---12------12---12---------12--||
||o---------12-----------12----|--------12-----------12-------o||
||-----------------------------|-------------------------------||
|
|   Gtr II
|    PM--|                          PM--|        PM|
|    S S  e  H.                  E  S S  e  Q    S S  S E.
||-----------------------------|-------------------------------||
||o----------------------------|------------------------------o||
||-----------------------------|-------------------------------||
||-----------------------------|------------------------1------||
||o--0-0--0--------------------|----0-0--0-------0-0--0-1-----o||
||---0-0--0--------------------|----0-0--0-------0-0--0-1------||


  D5                                                  Eb5
   E    E  E   E  E  E  E  E   E  E    E  E E  E    E     E
|----------------------------|------------------------------
|-10-------------10-------10-|-9------------9---------------
|----------------------------|------------------------------
|------12-----12----12-------|---12------12---12---------12-
|---------12-----------12----|--------12-----------12-------
|----------------------------|------------------------------
|
|  PM--|                          PM--|        PM|
|  S S  e  H.                  E  S S  e  Q    S S  S E.
|----------------------------|------------------------------
|----------------------------|------------------------------
|----------------------------|------------------------------
|----------0-----------------|----------------------0-1-----
|--0-0--0--0-----------------|----0-0--0-------0-0--0-1-----
|--0-0--0--0-----------------|----0-0--0-------0-0--0-1-----


  D5                                                  Eb5
   E    E  E   E  E  E  E  E   E  E    E  E E  E    E     E
|----------------------------|------------------------------|
|-10-------------10-------10-|-9------------9---------------|
|----------------------------|------------------------------|
|------12-----12----12-------|---12------12---12---------12-|
|---------12-----------12----|--------12-----------12-------|
|----------------------------|------------------------------|
|
|  PM--|                          PM--|        PM|
|  S S  e  H.                  E  S S  e  Q    S S  S E.
|----------------------------|------------------------------|
|----------------------------|------------------------------|
|----------------------------|------------------------------|
|----------------------------|------------------------1-----|
|--0-0--0--------------------|----0-0--0-------0-0--0-1-----|
|--0-0--0--------------------|----0-0--0-------0-0--0-1-----|


    D5                                     Eb5
     E      E    E    E      E      E    E        E
||--------------------------------------------------------|
||o-10----------------------10-------------------10-------|
||--------------------------------------------------------|
||---------12--------12------------12---------------------|
||o-------------12----------------------12----------------|
||--------------------------------------------------------|
|
|    PM----------------------------------------------------
|    T T S  S S  S S  T T S  T T S  S S  T T T T  T T T T
||--------------------------------------------------------|
||o-------------------------------------------------------|
||--------------------------------------------------------|
||--------------------------------------------------------|
||o--0-0-0--0-0--0-0--0-0-0--0-0-0--0-0--0-1-1-1--1-1-1-1-|
||---0-0-0--0-0--0-0--0-0-0--0-0-0--0-0--0-1-1-1--1-1-1-1-|


  D5                                   Eb5
  E      E    E    E     E      E    E        E           4x
|---------------------------------------------------------||
|-9----------------------9-------------------------------o||
|---------------------------------------------------------||
|-------12--------12-----------12------------12-----------||
|------------12---------------------12-------------------o||
|---------------------------------------------------------||
|
|---------------------------------------------------|
| T T S  S S  S S  T T S T T S  S S  T T T T  T T T T     4x
|---------------------------------------------------------||
|--------------------------------------------------------o||
|---------------------------------------------------------||
|---------------------------------------------------------||
|-0-0-0--0-0--0-0--0-0-0-0-0-0--0-0--0-1-1-1--1-1-1-1----o||
|-0-0-0--0-0--0-0--0-0-0-0-0-0--0-0--0-1-1-1--1-1-1-1-----||


  D5                                 Eb5
   ~~
                                   |-------3-------|
   H               +E       S  S   E      E        E
|--------------------------------------------------------|
|--------------------------------------------------------|
|-14--------------(14)-----12-14-/15-----14-------12-----|
|--------------------------------------------------------|
|-12--------------(12)-----10-12-/13-----12-------10-----|
|--------------------------------------------------------|
|
|  PM--|    PM-----------|         PM------------------|
|  T T S Q  T T S   T  T S  E      T T T    T T T    T T
|--------------------------------------------------------|
|--------------------------------------------------------|
|--------------------------------------------------------|
|--------------------------------------------------------|
|--0-0-0----0-0-0---0--0-0---------0-1-1----1-1-1----1-1-|
|--0-0-0----0-0-0---0--0-0---------0-1-1----1-1-1----1-1-|


  D5                                  Eb5
                                    |-------3-------|
    H               +E       S  S   E      E        E
|---------------------------------------------------------|
|---------------------------------------------------------|
|-/14--------------(14)-----12-14-/15-----14-------15-----|
|---------------------------------------------------------|
|-/12--------------(12)-----10-12-/13-----12-------13-----|
|---------------------------------------------------------|
|
|     PM|    PM-----------|         PM----------------|
|   T T S Q  T T S   T  T S  E      T T T    T T T    T T
|---------------------------------------------------------|
|---------------------------------------------------------|
|---------------------------------------------------------|
|---------------------------------------------------------|
|---0-0-0----0-0-0---0--0-0---------0-1-1----1-1-1----1-1-|
|---0-0-0----0-0-0---0--0-0---------0-1-1----1-1-1----1-1-|


  D5                                       Eb5
                                         |-------3-------|
    E.        S  +Q.              S  S   E      E        E
|--------------------------------------------------------------|
|--------------------------------------------------------------|
|--------------------------------12-14-/15-----14-------12-----|
|-/14--------15-(15)-------------------------------------------|
|--------------------------------10-12-/13-----12-------10-----|
|-/14--------15-(15)-------------------------------------------|
|
|   PM---|           PM--------|         PM------------------|
|   T  T S Q         T T S T T S  E      T T T    T T T    T T
|--------------------------------------------------------------|
|--------------------------------------------------------------|
|--------------------------------------------------------------|
|--------------------------------------------------------------|
|---0--0-0-----------0-0-0-0-0-0---------0-1-1----1-1-1----1-1-|
|---0--0-0-----------0-0-0-0-0-0---------0-1-1----1-1-1----1-1-|


                                                   H=H      Q=127
  D5                                  Eb5                   D5
                                    |-------3-------|
    H               +E       S  S   E      E        E       E S S S S Q  S S S S E
|---------------------------------------------------------|---------------------------|
|---------------------------------------------------------|---------------------------|
|-/14--------------(14)-----12-14-/15-----14-------12-----|---------------------------|
|---------------------------------------------------------|-0-------------------------|
|-/12--------------(12)-----10-12-/13-----12-------10-----|-0-0-0-0-0----0-0-0-0------|
|---------------------------------------------------------|-0-0-0-0-0----0-0-0-0------|
|
|     PM|    PM-----------|         PM----------------|
|   T T S Q  T T S   T  T S  E      T T T    T T T    T T   E S S S S Q  S S S S E
|---------------------------------------------------------|---------------------------|
|---------------------------------------------------------|---------------------------|
|---------------------------------------------------------|---------------------------|
|---------------------------------------------------------|-0-------------------------|
|---0-0-0----0-0-0---0--0-0---------0-1-1----1-1-1----1-1-|-0-0-0-0-0----0-0-0-0------|
|---0-0-0----0-0-0---0--0-0---------0-1-1----1-1-1----1-1-|-0-0-0-0-0----0-0-0-0------|


   Verse
    D5 F5    D5G5 G#5   A5  D5
    Gtrs I, II
             PM               PM----|     PM----|
    E. S +E  E E. S +E  E   E S S S S E E S S S S E
||------------------------|-------------------------|
||o-----------------------|-------------------------|
||------------------------|-------------------------|
||--0--3-(3)---5--6-(6)-7-|-0-----------------------|
||o-0--3-(3)-0-5--6-(6)-7-|-0-0-0-0-0-----0-0-0-0---|
||--0--3-(3)-0-5--6-(6)-7-|-0-0-0-0-0-----0-0-0-0---|


                         1.,2.,3.
     F5    D5G5 G#5   A5  D5
           PM               PM----|     PM----|
  E. S +E  E E. S +E  E   E S S S S E E S S S S E  4x
|-----------------------|--------------------------||
|-----------------------|-------------------------o||
|-----------------------|--------------------------||
|-0--3-(3)---5--6-(6)-7-|-0------------------------||
|-0--3-(3)-0-5--6-(6)-7-|-0-0-0-0-0-----0-0-0-0---o||
|-0--3-(3)-0-5--6-(6)-7-|-0-0-0-0-0-----0-0-0-0----||


 Interlude
  4.
  D5       Em               C5       Dm
  Gtr I
   E  E  E  E   E  E  E E    E  E  E  E   E  E  E E
|-------------------------|-------------------------|
|-10-10-10--8---8--8--8-8-|--8--8--8--6---6--6--6-6-|
|-------------------------|-------------------------|
|--7--7--7--5---5--5--5-5-|--5--5--5--3---3--3--3-3-|
|-------------------------|-------------------------|
|-------------------------|-------------------------|
|
| Gtr II
|  E  E  E  E  +Q     Q      E  E  E  E  +Q     Q
|-------------------------|-------------------------|
|-------------------------|-------------------------|
|-------------------------|-------------------------|
|-12-12-12-14-(14)---14---|-10-10-10-12-(12)---12---|
|-12-12-12-14-(14)---14---|-10-10-10-12-(12)---12---|
|-12-12-12-14-(14)---14---|-10-10-10-12-(12)---12---|


  Bb5   C                Dm       Em
  E E E  E   E  E  E E    E  E  E  E   E  E  E E
|----------------------|-------------------------|
|-6-6-6--5---5--5--5-5-|--6--6--6--8---8--8--8-8-|
|----------------------|-------------------------|
|-3-3-3--2---2--2--2-2-|--3--3--3--5---5--5--5-5-|
|----------------------|-------------------------|
|----------------------|-------------------------|
|
| E E E  E  +Q     Q      E  E  E  E  +Q     Q
|----------------------|-------------------------|
|----------------------|-------------------------|
|----------------------|-------------------------|
|-8-8-8-10-(10)---10---|-12-12-12-14-(14)---14---|
|-8-8-8-10-(10)---10---|-12-12-12-14-(14)---14---|
|-8-8-8-10-(10)---10---|-12-12-12-14-(14)---14---|


  D5       Em               C5       Dm
   E  E  E  E   E  E  E E    E  E  E  E   E  E  E E
|-------------------------|-------------------------|
|-10-10-10--8---8--8--8-8-|--8--8--8--6---6--6--6-6-|
|-------------------------|-------------------------|
|--7--7--7--5---5--5--5-5-|--5--5--5--3---3--3--3-3-|
|-------------------------|-------------------------|
|-------------------------|-------------------------|
|
|  E  E  E  E  +Q     Q      E  E  E  E  +Q     Q
|-------------------------|-------------------------|
|-------------------------|-------------------------|
|-------------------------|-------------------------|
|-12-12-12-14-(14)---14---|-10-10-10-12-(12)---12---|
|-12-12-12-14-(14)---14---|-10-10-10-12-(12)---12---|
|-12-12-12-14-(14)---14---|-10-10-10-12-(12)---12---|


  Bb5   C                Dm       Em
  E E E  E   E  E  E E    E  E  E  E   E  E  E E
|----------------------|-------------------------|
|-6-6-6--5---5--5--5-5-|--6--6--6--8---8--8--8-8-|
|----------------------|-------------------------|
|-3-3-3--2---2--2--2-2-|--3--3--3--5---5--5--5-5-|
|----------------------|-------------------------|
|----------------------|-------------------------|
|
| E E E  E  +Q     Q      E  E  E  E  +Q     Q
|----------------------|-------------------------|
|----------------------|-------------------------|
|----------------------|-------------------------|
|-8-8-8-10-(10)---10---|-12-12-12-14-(14)---14---|
|-8-8-8-10-(10)---10---|-12-12-12-14-(14)---14---|
|-8-8-8-10-(10)---10---|-12-12-12-14-(14)---14---|


   Verse
    F5 D5                       F5        G5      G#A5
    Gtrs I, II
       PM--|          PM--------|     PM--|     PM--|
    E. E S E H      E S S S S S S +S  S S S +S  S S S  4x
||----------------|------------------------------------||
||o---------------|-----------------------------------o||
||----------------|------------------------------------||
||--3-------------|------------------------------------||
||o-3--0-0-0------|-------------3-(3)-----5-(5)---6S7-o||
||--3--0-0-0------|---0-0-0-0-0-3-(3)-0-0-5-(5)-0-6S7--||


    F5 C5                             F5    G5 G#A5    D5
       PM----|                PM----|                      PM------------|
    E. S +S  S E +H       +E  S S S S E +E  Q  S S     S S E E E E E S S E
||----------------------|---------------------------||---------------------|
||o---------------------|--------------------------o||---------------------|
||----------------------|---------------------------||---------------------|
||--3----------0-(0)----|-(0)---------3-(3)-5--6S7--||-0-0-----------------|
||o-3--0-(0)-0-0-(0)----|-(0)-0-0-0-0-3-(3)-5--6S7-o||-0-0-0-0-0-0-0-0-0-0-|
||--3--0-(0)-0-0-(0)----|-(0)-0-0-0-0-3-(3)-5--6S7--||-0-0-0-0-0-0-0-0-0-0-|


 Guitar Break
  D5 F5    D5G5 G#5   A5  D5
           PM               PM----|     PM----|
  E. S +E  E E. S +E  E   E S S S S E E S S S S E
|-----------------------|-------------------------|
|-----------------------|-------------------------|
|-----------------------|-------------------------|
|-0--3-(3)---5--6-(6)-7-|-0-----------------------|
|-0--3-(3)-0-5--6-(6)-7-|-0-0-0-0-0-----0-0-0-0---|
|-0--3-(3)-0-5--6-(6)-7-|-0-0-0-0-0-----0-0-0-0---|


   Verse
    D5 F5    D5G5 G#5   A5  D5
             PM               PM----|     PM----|
    E. S +E  E E. S +E  E   E S S S S E E S S S S E
||------------------------|-------------------------|
||o-----------------------|-------------------------|
||------------------------|-------------------------|
||--0--3-(3)---5--6-(6)-7-|-0-----------------------|
||o-0--3-(3)-0-5--6-(6)-7-|-0-0-0-0-0-----0-0-0-0---|
||--0--3-(3)-0-5--6-(6)-7-|-0-0-0-0-0-----0-0-0-0---|


                         1.
  D5 F5    D5G5 G#5   A5  D5
           PM               PM----|     PM----|
  E. S +E  E E. S +E  E   E S S S S E E S S S S E
|-----------------------|--------------------------||
|-----------------------|-------------------------o||
|-----------------------|--------------------------||
|-0--3-(3)---5--6-(6)-7-|-0------------------------||
|-0--3-(3)-0-5--6-(6)-7-|-0-0-0-0-0-----0-0-0-0---o||
|-0--3-(3)-0-5--6-(6)-7-|-0-0-0-0-0-----0-0-0-0----||


 Pre-Chorus
  2.
  Bb/F       Em    A5      Bb5
  Gtr I
   E  E  +E  E +E   E  +E  E   +W
|----------------------------|---------------|
|-11-10-(10)-8-(8)-10-(10)-6-|-(6)-----------|
|----------------------------|---------------|
|--8--7--(7)-5-(5)--7--(7)-3-|-(3)-----------|
|----------------------------|---------------|
|----------------------------|---------------|
|
| Gtr II
|  E  E  +E  E +E   E  +E  E   +Q   Q  Q  Q
|----------------------------|---------------|
|----------------------------|---------------|
|--7-10-(10)-9-(9)-----------|---------------|
|----10-(10)-9-(9)--7--(7)-8-|-(8)--8--8--8--|
|--5--8--(8)-7-(7)--7--(7)-8-|-(8)--8--8--8--|
|-------------------7--(7)-8-|-(8)--8--8--8--|


  Bb/F       Em    A5      Bb5
   E  E  +E  E +E   E  +E  E   +W
|----------------------------|---------------|
|-11-10-(10)-8-(8)-10-(10)-6-|-(6)-----------|
|----------------------------|---------------|
|--8--7--(7)-5-(5)--7--(7)-3-|-(3)-----------|
|----------------------------|---------------|
|----------------------------|---------------|
|
|  E  E  +E  E +E   E  +E  E   +Q   Q  Q  Q
|----------------------------|---------------|
|----------------------------|---------------|
|--7-10-(10)-9-(9)-----------|---------------|
|----10-(10)-9-(9)--7--(7)-8-|-(8)--8--8--8--|
|--5--8--(8)-7-(7)--7--(7)-8-|-(8)--8--8--8--|
|-------------------7--(7)-8-|-(8)--8--8--8--|


  Bb/F       Em    A5      Bb5
   E  E  +E  E +E   E  +E  E   +W
|----------------------------|---------------|
|-11-10-(10)-8-(8)-10-(10)-6-|-(6)-----------|
|----------------------------|---------------|
|--8--7--(7)-5-(5)--7--(7)-3-|-(3)-----------|
|----------------------------|---------------|
|----------------------------|---------------|
|
|  E  E  +E  E +E   E  +E  E   +Q   Q  Q  Q
|----------------------------|---------------|
|----------------------------|---------------|
|--7-10-(10)-9-(9)-----------|---------------|
|----10-(10)-9-(9)--7--(7)-8-|-(8)--8--8--8--|
|--5--8--(8)-7-(7)--7--(7)-8-|-(8)--8--8--8--|
|-------------------7--(7)-8-|-(8)--8--8--8--|


  Bb/F       Em    A5      Bbsus2
   E  E  +E  E +E   E  +E    E    +W
|------------------------------|-------------------|
|-11-10-(10)-8-(8)-10-(10)-/13-|-(13)--------------|
|------------------------------|-------------------|
|--8--7--(7)-5-(5)--7--(7)-/10-|-(10)--------------|
|------------------------------|-------------------|
|------------------------------|-------------------|
|
|  E  E  +E  E +E   E  +E    E    +Q   E E E E E E
|------------------------------|-------------------|
|------------------------------|-------------------|
|--7-10-(10)-9-(9)-------------|-------------------|
|----10-(10)-9-(9)--7--(7)---8-|--(8)----8---8---8-|
|--5--8--(8)-7-(7)--7--(7)---8-|--(8)--8-8-8-8-8-8-|
|-------------------7--(7)---8-|--(8)--8-8-8-8-8-8-|


   Chorus
    D5                            G
      E  E  E   E  +Q     E   E    E  E  E   E  +Q     E   E
||------------------------------|----------------------------|
||o-----------------------------|----------------------------|
||--/12-11-12--14-(14)---12--11-|-12-11-----14-(14)---12--11-|
||------------------------------|-------12-------------------|
||o-----------------------------|----------------------------|
||------------------------------|----------------------------|
|
|     E  E +E   E   E  E +Q        E  E +E   E   E  E +Q
||------------------------------|----------------------------|
||o-----------------------------|----------------------------|
||----7--7-(7)--7---7--7-(7)----|--4--4-(4)--4---4--4-(4)----|
||----7--7-(7)--7---7--7-(7)----|--5--5-(5)--5---5--5-(5)----|
||o---5--5-(5)--5---5--5-(5)----|--5--5-(5)--5---5--5-(5)----|
||------------------------------|--5--5-(5)--5---5--5-(5)----|


  C5                           D5/G       G5
                           ~~~~~~~~~
    E  E  E   E  E  E  E   E    +E   E  E  E  E   E  E   E
|----------------------------|------------------------------|
|-/15------------------------|------------------------------|
|-----14-12--11-12-14-12-----|------------------------------|
|-------------------------14-|-(14)-12----12----------------|
|----------------------------|---------15----15--14-12--10--|
|----------------------------|------------------------------|
|
|   E  E +E   E  E  E +Q         E   E  E  E +E   E +Q
|----------------------------|------------------------------|
|----------------------------|------------------------------|
|---5--5-(5)--5--5--5-(5)----|------------------------------|
|---5--5-(5)--5--5--5-(5)----|---7---7--7--5-(5)--5-(5)-----|
|---3--3-(3)--3--3--3-(3)----|---5---5--5--5-(5)--5-(5)-----|
|----------------------------|---5---5--5--5-(5)--5-(5)-----|


  D5                            G
    E  E  E   E  +Q     E   E    E  E  E   E  +Q     E   E
|-----------------------------|----------------------------|
|-----------------------------|----------------------------|
|-/12-11-12--14-(14)---12--11-|-12-11-----14-(14)---12--11-|
|-----------------------------|-------12-------------------|
|-----------------------------|----------------------------|
|-----------------------------|----------------------------|
|
|   E  E +E   E   E  E +Q        E  E +E   E   E  E +Q
|-----------------------------|----------------------------|
|-----------------------------|----------------------------|
|---7--7-(7)--7---7--7-(7)----|--4--4-(4)--4---4--4-(4)----|
|---7--7-(7)--7---7--7-(7)----|--5--5-(5)--5---5--5-(5)----|
|---5--5-(5)--5---5--5-(5)----|--5--5-(5)--5---5--5-(5)----|
|-----------------------------|--5--5-(5)--5---5--5-(5)----|


  C5                           G          Gsus4  G
                           ~~~~~~~~~
    E  E  E   E  E  E  E   E    +E   E  E  E  E   E  E   E
|----------------------------|------------------------------||
|-/15------------------------|-----------------------------o||
|-----14-12--11-12-14-12-----|------------------------------||
|-------------------------14-|-(14)-12----12----------------||
|----------------------------|---------15----15--14-12--10-o||
|----------------------------|------------------------------||
|
|   E  E +E   E  E  E +Q         E   E  E  E +E   E +Q
|----------------------------|------------------------------||
|----------------------------|-----------------------------o||
|---5--5-(5)--5--5--5-(5)----|---4---4--4--5-(5)--4-(4)-----||
|---5--5-(5)--5--5--5-(5)----|---5---5--5--5-(5)--5-(5)-----||
|---3--3-(3)--3--3--3-(3)----|---5---5--5--5-(5)--5-(5)----o||
|----------------------------|---5---5--5--5-(5)--5-(5)-----||


 Breakdown
  D5
    W           +W            +W            +W
|------------|-------------|-------------|---------|
|------------|-------------|-------------|---------|
|-/14--------|-(14)--------|-(14)--------|-(14)----|
|------------|-------------|-------------|---------|
|-/12--------|-(12)--------|-(12)--------|-(12)----|
|------------|-------------|-------------|---------|
|
| Gtr II
|   W           +W            +W            +W
|------------|-------------|-------------|---------|
|------------|-------------|-------------|---------|
|------------|-------------|-------------|---------|
|---0--------|--(0)--------|--(0)--------|--(0)----|
|---0--------|--(0)--------|--(0)--------|--(0)----|
|---0--------|--(0)--------|--(0)--------|--(0)----|


  N.C.                                             A5  G#D5G5F5D5F5E5
  Gtrs I, II
  PM---------------------------------------------|
  E E E E E E E E   E E E E E E Q    E E E E E E E E   E E E E E E Q
|-----------------|----------------|-----------------|----------------|
|-----------------|----------------|-----------------|----------------|
|-----------------|----------------|-----------------|----------------|
|-----------------|----------------|-----------------|----------------|
|-----------------|----------------|---------------7-|-6-0-5-3-0-3-2--|
|-0-3-2-0-2-3-0-7-|-6-0-5-3-0-3-2--|-0-3-2-0-2-3-0-7-|-6-0-5-3-0-3-2--|


    D5F5E5D5E5F5D5A5  G#D5G5F5D5F5E5   D5F5E5D5E5F5D5A5  G#D5G5F5D5F5E5
    E E E E E E E E   E E E E E E Q    E E E E E E E E   E E E E E E Q
||------------------|----------------|-----------------|------------------||
||o-----------------|----------------|-----------------|-----------------o||
||------------------|----------------|-----------------|------------------||
||--0-3-2-0-2h3-0-7-|-6-0-5-3-0-3-2--|-0-3-2-0-2h3-0-7-|-6-0-5-3-0-3-2----||
||o-0-3-2-0-2h3-0-7-|-6-0-5-3-0-3-2--|-0-3-2-0-2h3-0-7-|-6-0-5-3-0-3-2---o||
||--0-3-2-0-2h3-0-7-|-6-0-5-3-0-3-2--|-0-3-2-0-2h3-0-7-|-6-0-5-3-0-3-2----||


   Verse
    F5 D5                       F5        G5      G#A5
       PM--|          PM--------|     PM--|     PM--|
    E. E S E H      E S S S S S S +S  S S S +S  S S S  4x
||----------------|------------------------------------||
||o---------------|-----------------------------------o||
||----------------|------------------------------------||
||--3-------------|------------------------------------||
||o-3--0-0-0------|-------------3-(3)-----5-(5)---6S7-o||
||--3--0-0-0------|---0-0-0-0-0-3-(3)-0-0-5-(5)-0-6S7--||


    F5 D5                             F5    G5 G#A5
       PM----|                PM----|
    E. S +S  S E +H       +E  S S S S E +E  Q  S S  4x
||----------------------|---------------------------||
||o---------------------|--------------------------o||
||----------------------|---------------------------||
||--3----------0-(0)----|-(0)---------3-(3)-5--6S7--||
||o-3--0-(0)-0-0-(0)----|-(0)-0-0-0-0-3-(3)-5--6S7-o||
||--3--0-(0)-0-0-(0)----|-(0)-0-0-0-0-3-(3)-5--6S7--||


 Pre-Chorus
  Bb/F       Em    A5      Bb5
  Gtr I
   E  E  +E  E +E   E  +E  E   +W
|----------------------------|---------------|
|-11-10-(10)-8-(8)-10-(10)-6-|-(6)-----------|
|----------------------------|---------------|
|--8--7--(7)-5-(5)--7--(7)-3-|-(3)-----------|
|----------------------------|---------------|
|----------------------------|---------------|
|
| Gtr II
|  E  E  +E  E +E   E  +E  E   +Q   Q  Q  Q
|----------------------------|---------------|
|----------------------------|---------------|
|--7-10-(10)-9-(9)-----------|---------------|
|----10-(10)-9-(9)--7--(7)-8-|-(8)--8--8--8--|
|--5--8--(8)-7-(7)--7--(7)-8-|-(8)--8--8--8--|
|-------------------7--(7)-8-|-(8)--8--8--8--|


  Bb/F       Em    A5      Bb5
   E  E  +E  E +E   E  +E  E   +W
|----------------------------|---------------|
|-11-10-(10)-8-(8)-10-(10)-6-|-(6)-----------|
|----------------------------|---------------|
|--8--7--(7)-5-(5)--7--(7)-3-|-(3)-----------|
|----------------------------|---------------|
|----------------------------|---------------|
|
|  E  E  +E  E +E   E  +E  E   +Q   Q  Q  Q
|----------------------------|---------------|
|----------------------------|---------------|
|--7-10-(10)-9-(9)-----------|---------------|
|----10-(10)-9-(9)--7--(7)-8-|-(8)--8--8--8--|
|--5--8--(8)-7-(7)--7--(7)-8-|-(8)--8--8--8--|
|-------------------7--(7)-8-|-(8)--8--8--8--|


  Bb/F       Em    A5      Bb5
   E  E  +E  E +E   E  +E  E   +W
|----------------------------|---------------|
|-11-10-(10)-8-(8)-10-(10)-6-|-(6)-----------|
|----------------------------|---------------|
|--8--7--(7)-5-(5)--7--(7)-3-|-(3)-----------|
|----------------------------|---------------|
|----------------------------|---------------|
|
|  E  E  +E  E +E   E  +E  E   +Q   Q  Q  Q
|----------------------------|---------------|
|----------------------------|---------------|
|--7-10-(10)-9-(9)-----------|---------------|
|----10-(10)-9-(9)--7--(7)-8-|-(8)--8--8--8--|
|--5--8--(8)-7-(7)--7--(7)-8-|-(8)--8--8--8--|
|-------------------7--(7)-8-|-(8)--8--8--8--|


  Bb/F       Em    A5      Bbsus2
   E  E  +E  E +E   E  +E    E    +W
|------------------------------|-------------------|
|-11-10-(10)-8-(8)-10-(10)-/13-|-(13)--------------|
|------------------------------|-------------------|
|--8--7--(7)-5-(5)--7--(7)-/10-|-(10)--------------|
|------------------------------|-------------------|
|------------------------------|-------------------|
|
|  E  E  +E  E +E   E  +E    E    +Q   E E E E E E
|------------------------------|-------------------|
|------------------------------|-------------------|
|--7-10-(10)-9-(9)-------------|-------------------|
|----10-(10)-9-(9)--7--(7)---8-|--(8)----8---8---8-|
|--5--8--(8)-7-(7)--7--(7)---8-|--(8)--8-8-8-8-8-8-|
|-------------------7--(7)---8-|--(8)--8-8-8-8-8-8-|


   Chorus
    D5                            G
      E  E  E   E  +Q     E   E    E  E  E   E  +Q     E   E
||------------------------------|----------------------------|
||o-----------------------------|----------------------------|
||--/12-11-12--14-(14)---12--11-|-12-11-----14-(14)---12--11-|
||------------------------------|-------12-------------------|
||o-----------------------------|----------------------------|
||------------------------------|----------------------------|
|
|     E  E +E   E   E  E +Q        E  E +E   E   E  E +Q
||------------------------------|----------------------------|
||o-----------------------------|----------------------------|
||----7--7-(7)--7---7--7-(7)----|--4--4-(4)--4---4--4-(4)----|
||----7--7-(7)--7---7--7-(7)----|--5--5-(5)--5---5--5-(5)----|
||o---5--5-(5)--5---5--5-(5)----|--5--5-(5)--5---5--5-(5)----|
||------------------------------|--5--5-(5)--5---5--5-(5)----|


  C5                           D5/G       G5
                           ~~~~~~~~~
    E  E  E   E  E  E  E   E    +E   E  E  E  E   E  E   E
|----------------------------|------------------------------|
|-/15------------------------|------------------------------|
|-----14-12--11-12-14-12-----|------------------------------|
|-------------------------14-|-(14)-12----12----------------|
|----------------------------|---------15----15--14-12--10--|
|----------------------------|------------------------------|
|
|   E  E +E   E  E  E +Q         E   E  E  E +E   E +Q
|----------------------------|------------------------------|
|----------------------------|------------------------------|
|---5--5-(5)--5--5--5-(5)----|------------------------------|
|---5--5-(5)--5--5--5-(5)----|---7---7--7--5-(5)--5-(5)-----|
|---3--3-(3)--3--3--3-(3)----|---5---5--5--5-(5)--5-(5)-----|
|----------------------------|---5---5--5--5-(5)--5-(5)-----|


  D5                            G
    E  E  E   E  +Q     E   E    E  E  E   E  +Q     E   E
|-----------------------------|----------------------------|
|-----------------------------|----------------------------|
|-/12-11-12--14-(14)---12--11-|-12-11-----14-(14)---12--11-|
|-----------------------------|-------12-------------------|
|-----------------------------|----------------------------|
|-----------------------------|----------------------------|
|
|   E  E +E   E   E  E +Q        E  E +E   E   E  E +Q
|-----------------------------|----------------------------|
|-----------------------------|----------------------------|
|---7--7-(7)--7---7--7-(7)----|--4--4-(4)--4---4--4-(4)----|
|---7--7-(7)--7---7--7-(7)----|--5--5-(5)--5---5--5-(5)----|
|---5--5-(5)--5---5--5-(5)----|--5--5-(5)--5---5--5-(5)----|
|-----------------------------|--5--5-(5)--5---5--5-(5)----|


  C5                           G          Gsus4  G
                           ~~~~~~~~~
    E  E  E   E  E  E  E   E    +E   E  E  E  E   E  E   E
|----------------------------|------------------------------||
|-/15------------------------|-----------------------------o||
|-----14-12--11-12-14-12-----|------------------------------||
|-------------------------14-|-(14)-12----12----------------||
|----------------------------|---------15----15--14-12--10-o||
|----------------------------|------------------------------||
|
|   E  E +E   E  E  E +Q         E   E  E  E +E   E +Q
|----------------------------|------------------------------||
|----------------------------|-----------------------------o||
|---5--5-(5)--5--5--5-(5)----|---4---4--4--5-(5)--4-(4)-----||
|---5--5-(5)--5--5--5-(5)----|---5---5--5--5-(5)--5-(5)-----||
|---3--3-(3)--3--3--3-(3)----|---5---5--5--5-(5)--5-(5)----o||
|----------------------------|---5---5--5--5-(5)--5-(5)-----||


 Outro Solo
  D5                          G
   H             +H            E  E  E   E  +Q        E   E
|---------------------------|-10----10----------------------|
|-10b11r========(10)--------|-10-12-10--10-(10)-------------|
|-11b12r========(11)--------|-----------11-(11)b12---11-----|
|---------------------------|----------------------------12-|
|---------------------------|-------------------------------|
|---------------------------|-------------------------------|
|
|  E    E +E  E   E  E +Q      E  E +E   E   E     E +Q
|---------------------------|-------------------------------|
|---------------------------|-------------------------------|
|--7----7-(7)-7---7--7-(7)--|--4--4-(4)--4---4-----4-(4)----|
|--7----7-(7)-7---7--7-(7)--|--5--5-(5)--5---5-----5-(5)----|
|--5----5-(5)-5---5--5-(5)--|--5--5-(5)--5---5-----5-(5)----|
|---------------------------|--5--5-(5)--5---5-----5-(5)----|


  C5                          D5/G         G5
  E   E  +Q     +E   E  Q     E  E  +Q        E   E  E     +E
|---------------------------|----------------------------------|
|-------------------10------|----------------------------------|
|-9-/12-(12)---(12)----12---|---12-(12)b14r==12--11-12b14-(12)-|
|---------------------------|-9--------------------------------|
|---------------------------|----------------------------------|
|---------------------------|----------------------------------|
|
| E   E  +E  E   E   E +Q     E  E   E     E +E   E +Q
|---------------------------|----------------------------------|
|---------------------------|----------------------------------|
|-5---5--(5)-5---5---5-(5)--|----------------------------------|
|-5---5--(5)-5---5---5-(5)--|-7--7---7-----5-(5)--5-(5)--------|
|-3---3--(3)-3---3---3-(3)--|-5--5---5-----5-(5)--5-(5)--------|
|---------------------------|-5--5---5-----5-(5)--5-(5)--------|


  D5                            G
   E    E  +Q     +E   E  Q      E  E  E    E      E  E  E   E
|-----------------------------|-------12--(12)b14r12----10-----|
|-----/15-(15)---(15)-12------|--------------------------------|
|------------------------14---|----14-12---12b14r=12-12-----12-|
|-12r-------------------------|-12-----------------------------|
|-----------------------------|--------------------------------|
|-----------------------------|--------------------------------|
|
|  E    E  +E  E   E   E +Q      E  E +E    E      E  E +Q
|-----------------------------|--------------------------------|
|-----------------------------|--------------------------------|
|--7----7--(7)-7---7---7-(7)--|--4--4-(4)---4------4--4-(4)----|
|--7----7--(7)-7---7---7-(7)--|--5--5-(5)---5------5--5-(5)----|
|--5----5--(5)-5---5---5-(5)--|--5--5-(5)---5------5--5-(5)----|
|-----------------------------|--5--5-(5)---5------5--5-(5)----|


  C5                        G5
   H.              E   E    Q    Q     E     +E   Q
|-------------------------|---------------------------|
|-----------------12S=13--|------8----10b12-(10)r10---|
|-/9--------------(9)-(9)-|-9-------------------------|
|-------------------------|---------------------------|
|-------------------------|---------------------------|
|-------------------------|---------------------------|
|
|  E  E +E  E E E +Q        E E +E  E  E      E  +Q
|-------------------------|---------------------------|
|-------------------------|---------------------------|
|--5--5-(5)-5-5-5-(5)-----|---------------------------|
|--5--5-(5)-5-5-5-(5)-----|-5-5-(5)-5--5------5--(5)--|
|--3--3-(3)-3-3-3-(3)-----|-5-5-(5)-5--5------5--(5)--|
|-------------------------|-5-5-(5)-5--5------5--(5)--|


  D
  W          +W           +W           +W
|----------|------------|------------|--------|
|----------|------------|------------|--------|
|----------|------------|------------|--------|
|----------|------------|------------|--------|
|-9--------|-(9)--------|-(9)--------|-(9)----|
|----------|------------|------------|--------|
|
| W          +W           +W           +W
|----------|------------|------------|--------|
|----------|------------|------------|--------|
|-7--------|-(7)--------|-(7)--------|-(7)----|
|-7--------|-(7)--------|-(7)--------|-(7)----|
|-5--------|-(5)--------|-(5)--------|-(5)----|
|----------|------------|------------|--------|


  +W           +W           +W           +W
|------------|------------|------------|--------|
|------------|------------|------------|--------|
|------------|------------|------------|--------|
|------------|------------|------------|--------|
|-(9)--------|-(9)--------|-(9)--------|-(9)----|
|------------|------------|------------|--------|
|
| +W           +W           +W           +W
|------------|------------|------------|--------|
|------------|------------|------------|--------|
|-(7)--------|-(7)--------|-(7)--------|-(7)----|
|-(7)--------|-(7)--------|-(7)--------|-(7)----|
|-(5)--------|-(5)--------|-(5)--------|-(5)----|
|------------|------------|------------|--------|


  +W           +W
|------------|--------*|
|------------|--------*|
|------------|--------*|
|------------|--------*|
|-(9)--------|-(9)----*|
|------------|--------*|
|
| +W           +W
|------------|--------*|
|------------|--------*|
|-(7)--------|-(7)----*|
|-(7)--------|-(7)----*|
|-(5)--------|-(5)----*|
|------------|--------*|



									


911Tabs.com - tabs search engine
More "Radiant Eclipse" tabs @ 911Tabs

A Guide to Tab NotationGuitar TabsGuitar ResourcesGuitar TabsPrivacy PolicyGuitar TabsContact

Online Guitar Lessons

Avenged Sevenfold Guitar Tabs - Over 200,000 chords, guitar and bass tabs with video. Find tabs, video guitar lessons and more.