Music Guitar Tab, Tabs with MP3, ringtones, ringtone, concert tickets, guitar lessons, guitar tabs easy, guitar hero

Guitar Tabs Guitar Chords Bass Tabs
 Web Guitar Tabs
Guitar Lessons
 
Lyrics abcdefghijklmnopqrstuvwxyz # Top 100 Lyrics

Guitar Tabs
Guitar Tab






click on, click off


Tab for "Missing In Action Intro" - Avenged Sevenfold Rating 4Print Guitar Tabs
select alternative YouTube videos below...
Tweak the search term to refine the YouTube video results:         
Share on Facebook

Learn to play this song and others via online guitar lessons @ JamPlay.com!

e|----5-----10-------------------------------------------------------0-----|
B|-------6-----10----------6-----8--10---------8-----10-----------------2--|
G|----------------10\---------7--------10---------9------12--9\7\5\2------0|
D|-------------------------------------------------------------------------|
A|-8----------------------------------------7------------------------------|
D|----------------------8--------------------------------------------------|

e|----5-----10-------------------------------------------------------0-----|
B|-------6-----10----------6-----8--10---------8-----10-----------------2--|
G|----------------10\---------7--------10---------9------12--9\7\5\2------0|
D|-------------------------------------------------------------------------|
A|-8----------------------------------------7------------------------------|
D|----------------------8--------------------------------------------------|

e|----5-----10-------------------------------------------------------0-----|
B|-------6-----10----------6-----8--10---------8-----10-----------------2--|
G|----------------10\---------7--------10---------9------12--9\7\5\2------0|
D|-------------------------------------------------------------------------|
A|-8----------------------------------------7------------------------------|
D|----------------------8--------------------------------------------------|

e|----5-----10-------------------------------------------------------0-----|
B|-------6-----10----------6-----8--10---------8-----10-----------------2--|
G|----------------10\---------7--------10---------9------12--9\7\5\2------0|
D|-------------------------------------------------------------------------|
A|-8----------------------------------------7------------------------------|
D|----------------------8--------------------------------------------------|

e|---------------------10--------8-10----10-8-10-8-10-8--------------------|
B|-8-10-8-10-8-10-8-------10----------------------------10-8-10-8--8---10--|
G|------------------10-------10-------10-----------------------------9-----|
D|-------------------------------------------------------------------------|
A|-------------------------------------------------------------------------|
D|-------------------------------------------------------------------------|

e|-------10-8----------9----------------------------8-10-8-10-8-10-8-------|
B|----11------10-11-10-----8-10-8-10-8-10-8--------------------------10-8--|
G|-12---------------------------------------10-10--------------------------|
D|-------------------------------------------------------------------------|
A|-------------------------------------------------------------------------|
D|-------------------------------------------------------------------------|

e|------------------10-8----9-10--12-(13)-----------|
B|10-8---8---10-8--------10-------------------------|
G|---------9------9---------------------------------|
D|--------------------------------------------------|
A|--------------------------------------------------|
D|--------------------------------------------------|
									


911Tabs.com - tabs search engine
More "Missing In Action Intro" tabs @ 911Tabs

A Guide to Tab NotationGuitar TabsGuitar ResourcesGuitar TabsPrivacy PolicyGuitar TabsContact

Online Guitar Lessons

Avenged Sevenfold Guitar Tabs - Over 200,000 chords, guitar and bass tabs with video. Find tabs, video guitar lessons and more.