Music Guitar Tab, Tabs with MP3, ringtones, ringtone, concert tickets, guitar lessons, guitar tabs easy, guitar hero

Guitar Tabs Guitar Chords Bass Tabs
 Web Guitar Tabs
Guitar Lessons
 
Lyrics abcdefghijklmnopqrstuvwxyz # Top 100 Lyrics

Guitar Tabs
Guitar Tab






click on, click off


Tab for "Missing In Action" - Avenged Sevenfold Rating 4Print Guitar Tabs
select alternative YouTube videos below...
Tweak the search term to refine the YouTube video results:         
Share on Facebook

Learn to play this song and others via online guitar lessons @ JamPlay.com!

Intro
||--10-------|-7-------|--9-------|--------||
||o-12-------|-8-------|-10-------|-------o||
||o----------|---------|----------|-------o||
||-----------|---------|----------|--------||


Verse  
||--10-------|-7-------|--9-------|--------||
||o-12-------|-8-------|-10-------|-------o||
||o----------|---------|----------|-------o||
||-----------|---------|----------|--------||


|-10---------------------|--7--------------------------------------|
|-12---------------------|--8--------------------------------------|
|------------------------|-----------------------------------------|
|------------------------|-----------------------------------------|


|--9------------|--------------------|
|-10------------|--------------------|
|---------------|--------------------|
|---------------|--------------------|

  
|-10---------------------|
|-12---------------------|
|------------------------|
|------------------------|
                
|--7--------------------------------------|--9------------|
|--8--------------------------------------|-10------------|
|-----------------------------------------|---------------|
|-----------------------------------------|---------------|



|-------------------|--------||
|-------------------|-12-----||
|-------------------|--------||
|-------------------|--------||

   Pre-Verse
    
||----------------|-----------------|
||o---------------|-----------------|
||o-5--5--7-8---1-|-(1)--1--3-5---3-|
||----------------|-----------------|


|---------------------------|---------------------|
|---------------------------|---------------------|
|-(3)-3-3-3-3-3-3-3-3-3-3-3-|-3-3-3-3-3-3-3-4---5-|
|---------------------------|---------------------|


|-----------------|-----------------|--------------------|--------------------||
|-----------------|-----------------|--------------------|-------------------o||
|-(5)--5--7-8---1-|-(1)--1--3-5---1-|-3-3-(3)---------1--|-(1)-1-1-1-1-1-1-1-o||
|-----------------|-----------------|---------3-3-(3)----|--------------------||


   Verse
||--------------|-------------|--------------|--------------------|
||o-------------|-------------|-----------/8-|-(8)-7-5-0---0-3-5--|
||o-------------|-------------|--------------|-----------1--------|
||--0-0---------|---------0-0-|--------------|--------------------|


|----------|----------|--------------|---------5-(5)--------||
|----------|----------|------------3-|-(3)-2-3-------3-2-3-o||
|----------|----------|-3-3----------|---------------------o||
|----------|----------|--------------|----------------------||


   Pre-Chorus
||-------------------|-----------------|------------------|------------------|
||o------------------|-----------------|------------------|------------------|
||o------------------|-----------------|------------------|------------------|
||--6-5-0-3-(3)--0-0-|-0-0-0-0-0-0-0-0-|-6-5-0-3-(3)--0-0-|-0-0-0-0-0-0-0-0--|



|---------------|------------------|---------------|-------------------||
|---------------|------------------|---------------|------------------o||
|-1--1--1-1-----|------------------|-0--0--0-0-0-1-|-(1)-1-1--1-1-1-1-o||
|-----------0-3-|-(3)-3-3--3-3-3-3-|---------------|-------------------||


   Chorus
||----------------|------------------|---------------|-------------------|
||o---------------|------------------|---------------|-------------------|
||o-5--5--5-5-5-1-|-(1)-1-1--1-0-1-2-|-3--3----------|----------------0--|
||----------------|------------------|-------2-2-2-3-|-(3)-3-3--3-2-3----|


 1.
|-----------------|----------------------|-----------------|------------------||
|-----------------|----------------------|-----------------|-----5-7-5-3-2---o||
|-----------------|----------------------|-3-3-3-3-3-3-3-3-|---3-----------3-o||
|-5--5--3-5-(5)-7-|-(7)-7-(7)-8-(8)-8-8--|-----------------|-5----------------||


  2.
                                                        
|-----------------|----------------------|-----------------|----------------||
|-----------------|----------------------|---------------5-|-(5)---2-(2)----||
|-----------------|----------------------|-3-3-3-3-3-3-3---|----------------||
|-5--5--3-5-(5)-7-|-(7)-7-(7)-8-(8)-8-8--|-----------------|----------------||


   Bridge

||----------------|-----------------|
||o---------------|-----------------|
||o-5--5--7-8---1-|-(1)--1--3-5---3-|
||----------------|-----------------|



|---------------------------|-----------------------|
|---------------------------|-----------------------|
|-(3)-3-3-3-3-3-3-3-3-3-3-3-|-3-3-3-3-3-3-3-4---5---|
|---------------------------|-----------------------|

                                                 
  
|-----------------|-----------------|--------------------|--------------------||
|-----------------|-----------------|--------------------|-------------------o||
|-(5)--5--7-8---1-|-(1)--1--3-5---1-|-3-3-(3)---------1--|-(1)-1-1-1-1-1-1-1-o||
|-----------------|-----------------|---------3-3-(3)----|--------------------||


   Breakdown
  
||--------------|-------------|--------------|---------------||
||o-------------|-------------|--------------|--------------o||
||o-------------|-1--1--1-0-1-|-3--3-3-3-3-3-|--------0-0-0-o||
||--0--0-0-0----|-------------|--------------|-3--3-3--------||


   Interlude
||--------------------------|-------------------------|
||o-------------------------|-------------------------|
||o-------------------------|-------------------------|
||--12-0-0-0-0-12-0-0-0-0-|-12-0-0-0-0-12-0-0-0-0-|



|---------------------|-------------------|
|---------------------|-------------------|
|---------------------|-------------------|
|---0-0-0-0---0-0-0-0-|---0-0-0-0-0-2-3---|

|---------------------|----------------------||
|---------------------|---------------------o||
|-1-1-1-1-1-1-1-1-1-1-|-1-1-1-1-1-1-1-1-1-1-o||
|---------------------|----------------------||


 Guitar Break
 
|-------------|--------------|--------------|--------------||
|-------0-----|--------------|--------------|--------------||
|----0-----0--|--------------|--------------|--------0-0-0-||
|-0-----------|-2--2-2-2-2-2-|-3--3-3-3-3-3-|-3--3-3-------||


   Guitar Solo
 
||--------------------------|-------------------------|
||o-------------------------|-------------------------|
||o-5-5-5-5-5-5-5-5-5-5-5-5-|-5-5-5-5-5-5-5-5-5-5-5-5-|
||--------------------------|-------------------------|

|-------------------------|-------------------------|
|-------------------------|-------------------------|
|-1-1-1-1-1-1-1-1-1-1-1-1-|-1-1-1-1-1-1-1-1-1-1-1-1-|
|-------------------------|-------------------------|


 
|-------------------------|-------------------------|
|-------------------------|-------------------------|
|-3-3-3-3-3-3-3-3-3-3-3-3-|-3-3-3-3-3-3-3-3-3-3-3-3-|
|-------------------------|-------------------------|

|-------------------|-----------------------||
|-------------------|----------------------o||
|-0-0-0-4-(4)-4---7-|-(7)-7---4-(4)-7-7-7--o||
|-------------------|-----------------------||


   Interlude
 
||--------------------------|-----------------------|
||o-------------------------|-----------------------|
||o-5-5-5-5-5-5-5-5-5-5-5-5-|-5-5-5-5-5-5-5-5-5-5-1-|
||--------------------------|-----------------------|



|---------------------------|-----------------------|
|---------------------------|-----------------------|
|-(1)-1-1-1-1-1-1-1-1-1-1-1-|-1-1-1-1-1-1-1-1-1-1-3-|
|---------------------------|-----------------------|


|---------------------------|-------------------------|
|---------------------------|-------------------------|
|-(3)-3-3-3-3-3-3-3-3-3-3-3-|-3-3-3-3-3-3-3-3-3-3-3-3-|
|---------------------------|-------------------------|


|-------------------|-----------------------||
|-------------------|----------------------o||
|-0-0-0-4-(4)-4---7-|-(7)-7---4-(4)-7-7-7--o||
|-------------------|-----------------------||


   Guitar Solo
   
||--------------|----------|-------------|------|
||o-------------|----------|-------------|------|
||o-5-5-5-------|----------|-1-1-1-------|------|
||--------------|----------|-------------|------|


 
|---------------|------------|-------------------|----------------------||
|---------------|------------|-------------------|---------------------o||
|-3-3-3-------3-|-(3)--------|-0-0-0-4-(4)-4---7-|-(7)-7---4-(4)-7-7-7-o||
|-----------5---|------------|-------------------|----------------------||


   Breakdown
  
||------------------|--------------------|
||o-----------------|--------------------|
||o-----------------|-1-1-1-1-1-1-1-1-1--|
||--0-0-0--0-0-0-0--|--------------------|


 
|-----------------5--|----------------------|
|--------------------|----------------------|
|-3-3-3-3-3-3-3-3----|----------------------|
|--------------------|-3-3-3-3-3-3-3-3-3-3--|


 
|-----------------------|--------------------|
|-----------------------|--------------------|
|-----------------------|--------------------|
|-5-5-5-5-5-5-5-5-5-5-5-|-7-7-7-7-0-8-8-8-8--|


  
|-----------------------|-------------------------------||
|-----------------------|-5-----5-----5-7-5-3-5-3-2----o||
|-3-3-3-3-3-3-3-3-3-3-3-|---3-3---3-3---------------3--o||
|-----------------------|-------------------------------||


   Bridge

||---------------|------------|---------------|----------------||
||o--------------|------------|---------------|---------------o||
||o--------------|-1----0-1-2-|-3--3-3-3--3-3-|--------0-0-0--o||
||--0----(0)-0-0-|------------|---------------|-3--3-3---------||


|---------|----------|----------|--------||
|---------|----------|----------|--------||
|---------|----------|----------|--------||
|-0-------|-(0)------|-(0)------|-(0)----||


   Re-Intro
   
    
||----------||
||o--------o||
||o--------o||
||----------||


 Verse



									


911Tabs.com - tabs search engine
More "Missing In Action" tabs @ 911Tabs

A Guide to Tab NotationGuitar TabsGuitar ResourcesGuitar TabsPrivacy PolicyGuitar TabsContact

Online Guitar Lessons

Avenged Sevenfold Guitar Tabs - Over 200,000 chords, guitar and bass tabs with video. Find tabs, video guitar lessons and more.