Music Guitar Tab, Tabs with MP3, ringtones, ringtone, concert tickets, guitar lessons, guitar tabs easy, guitar hero

Guitar Tabs Guitar Chords Bass Tabs
 Web Guitar Tabs
Guitar Lessons
 
Lyrics abcdefghijklmnopqrstuvwxyz # Top 100 Lyrics

Guitar Tabs
Guitar Tab






click on, click off


Tab for "Mia" - Avenged Sevenfold Rating 4Print Guitar Tabs
select alternative YouTube videos below...
Tweak the search term to refine the YouTube video results:         
Share on Facebook

Learn to play this song and others via online guitar lessons @ JamPlay.com!

M.I.A.
As recorded by Avenged Sevenfold
(From the 2005 Album CITY OF EVIL)
Drop D
THIS IS FROM ANOTHER SITE
D5
x 5 7 7 x x

C5
x 3 5 5 x x

Bb5
x 1 3 3 x x

A5
x 0 2 x x x
Dbm
x 4 2 x x x

Em
x 7 5 x x x

Dbm(type 2)
x 4 2 6 x x

Gtr I (D A D G B E) - 'Clean Left Channel'
Gtr II (D A D G B E) - 'Clean Right Channel'
Gtr III (D A D G B E) - 'Distortion Neutral'
Gtr IV (D A D G B E) - 'Distortion Left Channel'
Gtr V (D A D G B E) - 'Distortion Right Channel'

   Intro
    Slowly Q.=48
    (Dm)               (Bb)          (C)            (F)   (E)
   6/8
    Gtr I
||----------10-------|---------5---|--------------|-------0------||
||o---10-------10----|---6---8---6-|---8---10-8---|-3-1-----2---o||
||-------10-------10-|-----7-------|-----9------9-|-----2-----0--||
||-------------------|-------------|--------------|--------------||
||o-8----------------|-5-----------|-7------------|-------------o||
||-------------------|-------------|--------------|--------------||
|
|   Gtr II
||-----------5-------|-------0-1---|---0------0---|--------------||
||o----6--------6----|---3-------3-|--------6-----|-------2-----o||
||--------7--------7s|=3---3-------|-----5------5-|-3-2-----3----||
||-------------------|-------------|--------------|-----3-----2--||
||o-5----------------|-1-----------|-3------------|-------------o||
||-------------------|-------------|--------------|--------------||


   Verse
    (Dm)               (Bb)          (C)            (F)   (E)
||----------10-------|---------5---|--------------|-------0-------||
||o---10-------10----|---6---8---6-|---8---10-8---|-3-1-----2----o||
||-------10-------10-|-----7-------|-----9------9-|-----2-----0---||
||-------------------|-------------|--------------|---------------||
||o-8----------------|-5-----------|-7------------|--------------o||
||-------------------|-------------|--------------|---------------||
|
||-----------5-------|-------0-1---|---0------0---|---------------||
||o----6--------6----|---3-------3-|--------6-----|-------2------o||
||--------7--------7s|=3---3-------|-----5------5-|-3-2-----3-----||
||-------------------|-------------|--------------|-----3-----2---||
||o-5----------------|-1-----------|-3------------|--------------o||
||-------------------|-------------|--------------|---------------||


  (Dm)               (Bb)          (C)            (F)   (E)
|---------10-------|---------5---|--------------|-------0-----|
|---10-------10----|---6---8---6-|---8---10-8---|-3-1-----2---|
|------10-------10-|-----7-------|-----9------9-|-----2-----0-|
|------------------|-------------|--------------|-------------|
|-8----------------|-5-----------|-7------------|-------------|
|------------------|-------------|--------------|-------------|
|
|----------5-------|-------0-1---|---0------0---|-------------|
|----6--------6----|---3-------3-|--------6-----|-------2-----|
|-------7--------7s|=3---3-------|-----5------5-|-3-2-----3---|
|------------------|-------------|--------------|-----3-----2-|
|-5----------------|-1-----------|-3------------|-------------|
|------------------|-------------|--------------|-------------|


  (Dm)
  Gtr I
|--------------------------------10----------|
|----------10------------------------10------|
|---------------------10------------------10-|
|--------------------------------------------|
|-8------------------------------------------|
|--------------------------------------------|
|
| Gtr II
|---------------------------------5----------|
|-----------6-------------------------6------|
|----------------------7-------------------7s|
|--------------------------------------------|
|-5------------------------------------------|
|--------------------------------------------|
|
| Gtr III
|--------------------------------------------|
|--------------------------------------------|
|-9-(9)b10-(9)-(9)b10-(9)-(9)b10-(9)----7----|
|--------------------------------------------|
|--------------------------------------------|
|--------------------------------------------|


  (Bb)                                                (C)
|--------------------------------------------5------|----------------|
|--------------6-------------------------8-----6----|---8---10-8-----|
|---------------------------7-----------------------|-----9-------9--|
|---------------------------------------------------|----------------|
|--5------------------------------------------------|-7--------------|
|---------------------------------------------------|----------------|
|
|----------------------------------------0---1------|---0------0-----|
|--------------3-------------------------------3----|--------6-------|
|--3------------------------3-----------------------|-----5-------5--|
|---------------------------------------------------|----------------|
|--1------------------------------------------------|-3--------------|
|---------------------------------------------------|----------------|
|
|                                                     ~
|---------------------------------------------------|----------------|
|-10-(10)b11-(10)-(10)b11-(10)-(10)b11-(10)---------|----------------|
|-------------------------------------------10-9h10-|-9------7-9-10--|
|---------------------------------------------------|----------------|
|---------------------------------------------------|----------------|
|---------------------------------------------------|----------------|


  (F)           (E)     (Dm)
|-------------0-------|--------------------||
|---3-1----------2----|--------------------||
|----------2--------0-|-------<7>-(<7>)----||
|---------------------|-------<7>-(<7>)----||
|---------------------|--5-----------------||
|---------------------|--------------------||
|
|---------------------|--------5---(5)-----||
|-------------2-------|--------6---(6)-----||
|---3-2----------3----|--------------------||
|----------3--------2-|--------------------||
|---------------------|--5-----------------||
|---------------------|--------------------||
|
|---------------------|--------------------||
|-/11---10---10-11-14-|-14b15-----(14)-----||
|---------------------|--------------------||
|---------------------|--------------------||
|---------------------|--------------------||
|---------------------|--------------------||


   Pre-Verse
    Faster Q=162
    D5     N.C.   Bb5                 N.C.   C5
   4/4
    Gtr III
||-----------------------|----------------------|
||o----------------------|----------------------|
||--7---7---9-10---3-----|--(3)----3---5--7---5-|
||--7---7---x--x---3-----|--(3)----3---x--x---5-|
||o-5---5---7--8---1-----|--(1)----1---3--5---3-|
||-----------------------|----------------------|
|
|   Gtr IV
||-----------------------|----------------------|
||o-----------10--10b11==|=(10)r------10-11-----|
||-----10--12------------|--------10---------12-|
||-----------------------|----------------------|
||o----------------------|----------------------|
||-----------------------|----------------------|
|
|   Gtr V
|                            ~~~~~
||-----------------------|----------------------|
||o---------5--6---6-----|--(6)--------6--8---5-|
||------7----------------|---------7------------|
||-----------------------|----------------------|
||o----------------------|----------------------|
||-----------------------|----------------------|


                                                  Db5  D5
       PM|   PM------|   PM-----------|   PM----------------|
|----------------------------|------------------------------|
|----------------------------|------------------------------|
|--(5)-----5-----------5-----|----------5-------5--6----7---|
|--(5)-5-5-5-5-5-5-5-5-5-5-5-|---5--5-5-5-5-5---5--6----7---|
|--(3)-3-3-3-3-3-3-3-3-3-3-3-|---3--3-3-3-3-3---3--4----5---|
|----------------------------|------------------------------|
|
|   ~~~~~~~~~~~~~~~~~~~~~~~~~~~~~~~~
|----------------------------|----------------------------|
|----------------------------|----------------/10---------|
|-(12)-----------------------|-(12)---------------12-9-10-|
|----------------------------|----------------------------|
|----------------------------|----------------------------|
|----------------------------|----------------------------|
|
|   ~~~~~~~~~~~~~~~~~~~~~~~~~~~~~~~~
|----------------------------|----------------------------|
|--(5)-----------------------|--(5)------------/6--5------|
|----------------------------|-----------------------5--7-|
|----------------------------|----------------------------|
|----------------------------|----------------------------|
|----------------------------|----------------------------|


  D5        N.C.   Bb5                 N.C.   Bb5
                                               PM
|-------------------------|----------------------|
|-------------------------|----------------------|
|--(7)---7---9-10---3-----|--(3)----3---5--7-----|
|--(7)---7---x--x---3-----|--(3)----3---x--x---3-|
|--(5)---5---7--8---1-----|--(1)----1---3--5---1-|
|-------------------------|----------------------|
|
|   ~~~~
|-------------------------|----------------------|
|--------------10--10b11==|=(10)r------10-11-----|
|-(10)--10--12------------|--------10---------12-|
|-------------------------|----------------------|
|-------------------------|----------------------|
|-------------------------|----------------------|
|
|   ~~~~                      ~~~~~
|-------------------------|----------------------|
|------------5--6---6-----|--(6)--------6--8-----|
|--(7)---7----------------|---------7----------7-|
|-------------------------|----------------------|
|-------------------------|----------------------|
|-------------------------|----------------------|


  C5    F5            Bb5
         PM         PM             PM----------------------------|
|-------------------------|--------------------------------------|
|-------------------------|----------------------------------o---|
|--5-------------------3--|--(3)---------------------------------|
|--5--------3--(3)-----3--|--(3)---3--3--3--3---3-------3--3-----|
|--3-----3--3--(3)--3--1--|--(1)---1--1--1--1---1-------1--1-o---|
|--------3--3--(3)--3-----|--------------------------------------|
|
|                                                       ~~~~
|-------------------------|-------------10-13-(13)b15-(13)----||
|-10---------------10-----|----------11----------------------o||
|----12-10-12-(12)----10--|-(10)\-10--------------------------||
|-------------------------|-----------------------------------||
|-------------------------|----------------------------------o||
|-------------------------|-----------------------------------||
|
|                                                       ~~~~
|-------------------------|--------------6-10-(10)b12-(10)----||
|--6--5-----5--(5)--6-----|-----------6----------------------o||
|--------7-------------7--|--(7)\--7--------------------------||
|-------------------------|-----------------------------------||
|-------------------------|----------------------------------o||
|-------------------------|-----------------------------------||


   Verse
    D5                      N.C.
    Gtrs IV, V
||------------|-----------|-----------|--------------------|
||o-----------|-----------|-----------|--------------------|
||------------|-----------|-----------|--------------------|
||--0-0-------|-------0-0-|--------/8-|-(8)-7-5-0---0-3-5--|
||o-0-0-------|-------0-0-|-----------|-----------1--------|
||--0-0-------|-------0-0-|-----------|--------------------|


  N.C.                C5  N.C.
|---------|---------|-------------|----------------------||
|---------|---------|-------------|---------------------o||
|---------|---------|-5-5---------|---------5-(5)--------||
|---------|---------|-5-5------/3-|-(3)-2-3-------3-2-3--||
|---------|---------|-3-3---------|---------------------o||
|---------|---------|-------------|----------------------||


   Pre-Chorus
    $
    N.C.             D5
                     PM----------------------|
||-----------------------|-------------------|
||o----------------------|-------------------|
||-----------------------|-------------------|
||-----------------------|-------------------|
||o------------------0-0-|-0-0-0-0-0-0-0-0---|
||--6-5-0-3b3.5-(3)--0-0-|-0-0-0-0-0-0-0-0---|


  N.C.             D5
                   PM-----------------------|
|----------------------|--------------------|
|----------------------|--------------------|
|----------------------|--------------------|
|----------------------|--------------------|
|------------------0-0-|-0-0-0-0-0-0-0-0----|
|-6-5-0-3b3.5-(3)--0-0-|-0-0-0-0-0-0-0-0----|


  Bb5              F5
  Gtrs IV, V
|--------------------|---------------------------|
|------------------6-|-(6)---8-10-(10)-13-(13)---|
|-3--5-7-(7)-9-(9)-x-|-------x--x-------x--------|
|-x--x-x-----x-----3-|-(3)---5--7--(7)-10-(10)---|
|-1--3-5-(5)-7-(7)---|---------------------------|
|--------------------|---------------------------|
|
| Gtr III
|--------------------|---------------------------|
|--------------------|---------------------------|
|-3--3----3--3--3----|---------------------------|
|-3--3----3--3--3--3-|-(3)-3-3------3---3---3--3-|
|-1--1----1--1--1--3-|-(3)-3-3------3---3---3--3-|
|------------------3-|-(3)-3-3------3---3---3--3-|


  A5                    Bb5
|-8--10-12-(12)-15-(15)-13-|-(13)------10--------||
|-x---x--x-------x-------x-|------------x-------o||
|-5---7--9--(9)-12-(12)-10-|-(10)-------7--------||
|--------------------------|---------------------||
|--------------------------|--------------------o||
|--------------------------|---------------------||
|
|--------------------------|---------------------||
|--------------------------|--------------------o||
|-2---2------2---2---2---3-|--(3)-3-3---3-3-3-3--||
|-2---2------2---2---2---3-|--(3)-3-3---3-3-3-3--||
|-0---0------0---0---0---1-|--(1)-1-1---1-1-1-1-o||
|--------------------------|---------------------||


 Chorus
  D5            Bb5                     C5            F5
  Gtrs III, IV
|-----------------|-------------------|-----------------|------------------|
|-----------------|-------------------|-----------------|------------------|
|-7---7---7-7-7-3-|-(3)-3-3---3-3-3-3-|-5---5---5-5-5---|------------------|
|-7---7---7-7-7-3-|-(3)-3-3---3-3-3-3-|-5---5---5-5-5-3-|-(3)-3-3---3-3-3-3|
|-5---5---5-5-5-1-|-(1)-1-1---1-1-1-1-|-3---3---3-3-3-3-|-(3)-3-3---3-3-3-3|
|-----------------|-------------------|---------------3-|-(3)-3-3---3-3-3-3|
|
| Gtr V
|-----------------|-------------------|-----------------|------------------|
|-----------------|-------------------|-----------------|------------------|
|-----7-------7---|-------3-------3---|-----5-------5---|------------------|
|---7---7---7-----|-----3---3---3---3-|---5---5---5-----|-------7-------7--|
|-5-------5-----1-|-(1)-------1-------|-3-------3-------|-----3---3---3---3|
|-----------------|-------------------|---------------3-|-(3)-------3------|


  G5            A5           Bb5
|-----------------|-----------------------|
|-----------------|-----------------------|
|---------------2-|-(2)-2--2-3-(3)-3--3-3-|
|-5---5---5-5-5-2-|-(2)-2--2-3-(3)-3--3-3-|
|-5---5---5-5-5-0-|-(0)-0--0-1-(1)-1--1-1-|
|-5---5---5-5-5---|-----------------------|
|
|-----------------|-----------------------|
|-----------------|-----------------------|
|-----------------|-----------------------|
|-----8-------8---|-------10---------12---|
|---5---5---5-----|-----8----------8------|
|-5-------5-----7-|-(7)------8-(8)--------|


  C5
|-------------------------|--------------------------------|
|-------------------------|--------------------------------|
|--5--5--5--5--5--5--5--5-|-(5)--5--5--5--5---5-------5--5-|
|--5--5--5--5--5--5--5--5-|-(5)--5--5--5--5---5-------5--5-|
|--3--3--3--3--3--3--3--3-|-(3)--3--3--3--3---3-------3--3-|
|-------------------------|--------------------------------|
|
|-------------------------|--------------------------------|
|-------------------------|--------------------------------|
|-------------------------|--------------------------------|
|-------14----------14----|--------14----14-(14)b15-(14)---|
|----10----10----10----10-|-----10----10-------------------|
|-10----------10----------|-10-----------------------------|


  D5                   Bb5
|------------------------|---------------------|
|------------------------|---------------------|
|--7-----7-----7--7--7-3-|-(3)-3--3---3-3--3-3-|
|--7-----7-----7--7--7-3-|-(3)-3--3---3-3--3-3-|
|--5-----5-----5--5--5-1-|-(1)-1--1---1-1--1-1-|
|------------------------|---------------------|
|
|------------------------|---------------------|
|------------------------|---------------------|
|------------------------|---------------------|
|-------15----------15---|-------12-------12---|
|----12----12----12------|-----8----8---8----8-|
|-12----------12-------8-|-(8)--------8--------|


  C5                   F5
|------------------------|-------------------|
|------------------------|-------------------|
|--5-----5-----5--5--5---|-------------------|
|--5-----5-----5--5--5-3-|-(3)-3-3---3-3-3-3-|
|--3-----3-----3--3--3-3-|-(3)-3-3---3-3-3-3-|
|----------------------3-|-(3)-3-3---3-3-3-3-|
|
|------------------------|-------------------|
|------------------------|-------------------|
|------------------------|-------------------|
|-------14----------14---|-------7-------7---|
|----10----10----10------|-----3---3---3---3-|
|-10----------10-------3-|-(3)-------3-------|


  G5            A5           Bb5
|-----------------|-----------------------|
|-----------------|-----------------------|
|---------------2-|-(2)-2--2-3-(3)-3--3-3-|
|-5---5---5-5-5-2-|-(2)-2--2-3-(3)-3--3-3-|
|-5---5---5-5-5-0-|-(0)-0--0-1-(1)-1--1-1-|
|-5---5---5-5-5---|-----------------------|
|
|-----------------|-----------------------|
|-----------------|-----------------------|
|-----------------|-----------------------|
|-----8-------8---|-------10---------12---|
|---5---5---5-----|-----8----------8------|
|-5-------5-----7-|-(7)------8-(8)--------|


                                                  To Coda
  C5
|-------------------------|--------------------------------||
|-------------------------|--------------------------------||
|--5--5--5--5--5--5--5--5-|-(5)--5--5--5--5---5-------5--5-||
|--5--5--5--5--5--5--5--5-|-(5)--5--5--5--5---5-------5--5-||
|--3--3--3--3--3--3--3--3-|-(3)--3--3--3--3---3-------3--3-||
|-------------------------|--------------------------------||
|
|-------------------------|--------------------------------||
|-------------------------|--------------------------------||
|-------------------------|--------------------------------||
|-------14----------14----|--------14----14-(14)b15-(14)---||
|----10----10----10----10-|-----10----10-------------------||
|-10----------10----------|-10-----------------------------||


   Bridge
    D5     N.C.   Bb5                 N.C.   C5
    Gtr III
||-----------------------|----------------------|
||o----------------------|----------------------|
||--7---7---9-10---3-----|--(3)----3---5--7---5-|
||--7---7---x--x---3-----|--(3)----3---x--x---5-|
||o-5---5---7--8---1-----|--(1)----1---3--5---3-|
||-----------------------|----------------------|
|
|   Gtr IV
||-----------------------|----------------------|
||o-----------10--10b11==|=(10)r------10-11-----|
||-----10--12------------|--------10---------12-|
||-----------------------|----------------------|
||o----------------------|----------------------|
||-----------------------|----------------------|
|
|   Gtr V
|                            ~~~~~
||-----------------------|----------------------|
||o---------5--6---6-----|--(6)--------6--8---5-|
||------7----------------|---------7------------|
||-----------------------|----------------------|
||o----------------------|----------------------|
||-----------------------|----------------------|


                                                  Db5  D5
       PM|   PM------|   PM-----------|   PM------------------|
|----------------------------|--------------------------------|
|----------------------------|--------------------------------|
|--(5)-----5-----------5-----|----------5-------5--6----7-----|
|--(5)-5-5-5-5-5-5-5-5-5-5-5-|---5--5-5-5-5-5---5--6----7-----|
|--(3)-3-3-3-3-3-3-3-3-3-3-3-|---3--3-3-3-3-3---3--4----5-----|
|----------------------------|--------------------------------|
|
|   ~~~~~~~~~~~~~~~~~~~~~~~~~~~~~~~~
|----------------------------|------------------------------|
|----------------------------|----------------/10-----------|
|-(12)-----------------------|-(12)---------------12-9-10---|
|----------------------------|------------------------------|
|----------------------------|------------------------------|
|----------------------------|------------------------------|
|
|   ~~~~~~~~~~~~~~~~~~~~~~~~~~~~~~~~
|----------------------------|------------------------------|
|--(5)-----------------------|--(5)------------/6--5--------|
|----------------------------|-----------------------5--7---|
|----------------------------|------------------------------|
|----------------------------|------------------------------|
|----------------------------|------------------------------|


  D5        N.C.   Bb5                 N.C.   Bb5
                                               PM
|-------------------------|----------------------|
|-------------------------|----------------------|
|--(7)---7---9-10---3-----|--(3)----3---5--7-----|
|--(7)---7---x--x---3-----|--(3)----3---x--x---3-|
|--(5)---5---7--8---1-----|--(1)----1---3--5---1-|
|-------------------------|----------------------|
|
|   ~~~~
|-------------------------|----------------------|
|--------------10--10b11==|=(10)r------10-11-----|
|-(10)--10--12------------|--------10---------12-|
|-------------------------|----------------------|
|-------------------------|----------------------|
|-------------------------|----------------------|
|
|   ~~~~                      ~~~~~
|-------------------------|----------------------|
|------------5--6---6-----|--(6)--------6--8-----|
|--(7)---7----------------|---------7----------7-|
|-------------------------|----------------------|
|-------------------------|----------------------|
|-------------------------|----------------------|


                                               D.S. al Coda
  C5    F5            Bb5
         PM         PM             PM----------------------------|
|-------------------------|--------------------------------------|
|-------------------------|----------------------------------o---|
|--5-------------------3--|--(3)---------------------------------|
|--5--------3--(3)-----3--|--(3)---3--3--3--3---3-------3--3-----|
|--3-----3--3--(3)--3--1--|--(1)---1--1--1--1---1-------1--1-o---|
|--------3--3--(3)--3-----|--------------------------------------|
|
|                                                       ~~~~
|-------------------------|-------------10-13-(13)b15-(13)----||
|-10---------------10-----|----------11----------------------o||
|----12-10-12-(12)----10--|-(10)\-10--------------------------||
|-------------------------|-----------------------------------||
|-------------------------|----------------------------------o||
|-------------------------|-----------------------------------||
|
|                                                       ~~~~
|-------------------------|--------------6-10-(10)b12-(10)----||
|--6--5-----5--(5)--6-----|-----------6----------------------o||
|--------7-------------7--|--(7)\--7--------------------------||
|-------------------------|-----------------------------------||
|-------------------------|----------------------------------o||
|-------------------------|-----------------------------------||


 Breakdown
  Half-Time Q=81
  &
  D5
 6/8
|----------------------------------------------|
|----------------------------------------------|
|----------------------------------------------|
|--0-------------------------------------------|
|--0-------------------------------------------|
|--0-------------------------------------------|
|
|----------------------------------------------|
|----------------------------------------------|
|-12-(12)b14-(12)-(12)b14-(12)-(12)b14-(12)-10-|
|----------------------------------------------|
|----------------------------------------------|
|----------------------------------------------|
|
|----------------------------------------------|
|----------------------------------------------|
|--9--(9)b10--(9)--(9)b10--(9)--(9)b10--(9)--7-|
|----------------------------------------------|
|----------------------------------------------|
|----------------------------------------------|


  Bb5                                                  C5               F5       A5
|----------------------------------------------------|----------------|
|----------------------------------------------------|----------------|
|--3-----------------------------------------3--3----|--5-----5-------|
|--3-----------------------------------------3--3----|--5-----5-------|
|--1-----------------------------------------1--1----|--3-----3-------|
|----------------------------------------------------|----------------|

|-------------------|
|-----------2--2--2-|
|--3--------2--2--2-|
|--3--------0--0--0-|
|--3--------0--0--0-|
|--3----------------|

|----------------------------------------------------|----------------|
|-13-(13)b15-(13)-(13)b15-(13)-(13)b15-(13)----------|----------10-11-|
|-------------------------------------------14-12h14-|-12---/12-------|
|----------------------------------------------------|----------------|
|----------------------------------------------------|----------------|
|----------------------------------------------------|----------------|

|-----------------9-|
|-13b15-13-11-10----|
|-------------------|
|-------------------|
|-------------------|
|-------------------|

|
|----------------------------------------------------|----------------|
|-10-(10)b11-(10)-(10)b11-(10)-(10)b11-(10)----------|----------------|
|--------------------------------------------7--9h10-|--9----/9-10-12-|
|----------------------------------------------------|----------------|
|----------------------------------------------------|----------------|
|----------------------------------------------------|----------------|


|-------------------|
|-10b11-10-------10-|
|----------12-10----|
|-------------------|
|-------------------|
|-------------------|


  D5
|----------------------------------------------|
|----------------------------------------------|
|----------------------------------------------|
|--0-------------------------------------------|
|--0-------------------------------------------|
|--0-------------------------------------------|
|
|----------------------------------------------|
|----------------------------------------------|
|-12-(12)b14-(12)-(12)b14-(12)-(12)b14-(12)-10-|
|----------------------------------------------|
|----------------------------------------------|
|----------------------------------------------|
|
|----------------------------------------------|
|----------------------------------------------|
|--9--(9)b10--(9)--(9)b10--(9)--(9)b10--(9)--7-|
|----------------------------------------------|
|----------------------------------------------|
|----------------------------------------------|


  Bb5                                                  C5               F5       A5
|----------------------------------------------------|----------------|
|----------------------------------------------------|----------------|
|--3-----------------------------------------3--3----|--5-----5-------|
|--3-----------------------------------------3--3----|--5-----5-------|
|--1-----------------------------------------1--1----|--3-----3-------|
|----------------------------------------------------|----------------|


|--------------------|
|--------------------|
|-----------2--2--2--|
|--3--------2--2--2--|
|--3--------0--0--0--|
|--3-----------------|


|----------------------------------------------------|----------------|
|-13-(13)b15-(13)-(13)b15-(13)-(13)b15-(13)----------|----------10-11-|
|-------------------------------------------14-12h14-|-12---/12-------|
|----------------------------------------------------|----------------|
|----------------------------------------------------|----------------|
|----------------------------------------------------|----------------|


|-----------9-10-12--||
|-13b15-13-----------||
|--------------------||
|--------------------||
|--------------------||
|--------------------||


|----------------------------------------------------|----------------|
|-10-(10)b11-(10)-(10)b11-(10)-(10)b11-(10)----------|----------------|
|--------------------------------------------7--9h10-|--9----/9-10-12-|
|----------------------------------------------------|----------------|
|----------------------------------------------------|----------------|
|----------------------------------------------------|----------------|


|-----------------9--||
|-10b11-10-10-11-----||
|--------------------||
|--------------------||
|--------------------||
|--------------------||

 Interlude
  D5
        PM----|      PM--------|       PM----|     PM--------|
|--------------------------------|---------------------------|
|--------------------------------|---------------------------|
|--------------------------------|---------------------------|
|-12\------------12\-------------|-12\---------12\-----------|
|-12\---0-0-0-0--12\-0-0---0---0-|-12\-0-0-0-0-12\-0-0-0-0---|
|-12\---0-0-0-0--12\-0-0---0---0-|-12\-0-0-0-0-12\-0-0-0-0---|
|
|-12b13---------(12)-----(12)\---|-------------------------|
|--------------------------------|-------------------------|
|--------------------------------|-------------------------|
|--------------------------------|-------------------------|
|--------------------------------|-------------------------|
|--------------------------------|-------------------------|
|
|--9b10----------(9)------(9)\---|-------------------------|
|--------------------------------|-------------------------|
|--------------------------------|-------------------------|
|--------------------------------|-------------------------|
|--------------------------------|-------------------------|
|--------------------------------|-------------------------|


                                 E5F5
   PM----|  PM----|    PM--------------|
|-------------------|------------------|
|-------------------|------------------|
|-------------------|------------------|
|-------------------|----------0-2-3---|
|--0-0-0-0--0-0-0-0-|--0-0-0-0-0-2-3---|
|--0-0-0-0--0-0-0-0-|--0-0-0-0-0-2-3---|
|
|-------------------|----------------|
|-------------------|----------------|
|-------------------|----------------|
|-------------------|----------------|
|-------------------|----------------|
|-------------------|----------------|
|
|-------------------|----------------|
|-------------------|----------------|
|-------------------|----------------|
|-------------------|----------------|
|-------------------|----------------|
|-------------------|----------------|


  Bb5                             Bbsus2
  Gtr III
|-------------------------------|---------------------------------------|
|-------------------------------|---------------------------------------|
|-------------------------------|---------------------------------------|
|-8---8-8-8--8---8---8-8-8--8---|-10---10-10-10-10---10---10-10-10-10---|
|-8---8-8-8--8---8---8-8-8--8---|--8----8--8--8--8----8----8--8--8--8---|
|-8---8-8-8--8---8---8-8-8--8---|--8----8--8--8--8----8----8--8--8--8---|
|
| Gtr V
|---------6h10p6---------6h10p6-|-------------6h10p6-------------6h10p6-|
|-------------------------------|---------------------------------------|
|-------7--------------7--------|----------7------------------7---------|
|-----8--------------8----------|-------8------------------8------------|
|-5-8------------5-8------------|--5-8----------------5-8---------------|
|-------------------------------|---------------------------------------|


  D5
  Gtr III
      PM----|     PM----|       PM----|     PM--------|
|-------------------------|---------------------------|
|-------------------------|---------------------------|
|-------------------------|---------------------------|
|-12\---------12\---------|-12\---------12\-----------|
|-12\-0-0-0-0-12\-0-0-0-0-|-12\-0-0-0-0-12\-0-0-0-0---|
|-12\-0-0-0-0-12\-0-0-0-0-|-12\-0-0-0-0-12\-0-0-0-0---|


                                 E5F5
   PM----|  PM----|    PM--------------|
|-------------------|------------------|
|-------------------|------------------|
|-------------------|------------------|
|-------------------|----------0-2-3---|
|--0-0-0-0--0-0-0-0-|--0-0-0-0-0-2-3---|
|--0-0-0-0--0-0-0-0-|--0-0-0-0-0-2-3---|


  Bb5                             Bbsus2
  Gtr III
|-------------------------------|---------------------------------------||
|-------------------------------|---------------------------------------||
|-------------------------------|---------------------------------------||
|-8---8-8-8--8---8---8-8-8--8---|-10---10-10-10-10---10---10-10-10-10---||
|-8---8-8-8--8---8---8-8-8--8---|--8----8--8--8--8----8----8--8--8--8---||
|-8---8-8-8--8---8---8-8-8--8---|--8----8--8--8--8----8----8--8--8--8---||
|
| Gtr V
| PM----|        PM----|           PM-----|           PM-------------------|
|---------6h10p6---------6h10p6-|-------------6h10p6-------------6h10p6----|
|-------------------------------|------------------------------------------|
|-------7--------------7--------|----------7------------------7------------|
|-----8--------------8----------|-------8------------------8---------------|
|-5-8------------5-8------------|--5-8----------------5-8------------------|
|-------------------------------|------------------------------------------|


 Guitar Break
  D5                          C/E
  Gtrs III, IV
|---------------------------|-----------------------|
|---------------------------|-----------------------|
|---------------------------|-----------------------|
|--0--0-0--0-0--0--0-0--0-0-|--2--2-2--2-2--2--2--2-|
|--0--0-0--0-0--0--0-0--0-0-|--3--3-3--3-3--3--3--3-|
|--0--0-0--0-0--0--0-0--0-0-|--2--2-2--2-2--2--2--2-|
|
| Gtr V
|--------------10-----------|--------------12-------|
|---------10------10--------|---------13------13----|
|----10----------------10---|----12--------------12-|
|-12------------------------|-14--------------------|
|---------------------------|-----------------------|
|---------------------------|-----------------------|


  F5                                       A/Db
|---------------------------|---------------------------||
|---------------------------|---------------------------||
|---------------------------|---------------6--6-6--6-6-||
|--3--3-3--3-3--3--3-3--3-3-|--3--3-3--3-3--7--7-7--7-7-||
|--3--3-3--3-3--3--3-3--3-3-|--3--3-3--3-3--4--4-4--4-4-||
|--3--3-3--3-3--3--3-3--3-3-|--3--3-3--3-3--------------||
|
|--------------13-----------|-13-----------12-----------||
|---------13------13--------|----13-----------14--------||
|----14----------------14---|---------14-----------12---||
|-15------------------------|---------------------------||
|---------------------------|---------------------------||
|---------------------------|---------------------------||


 Guitar Solo
  a Tempo Q=162
  D5    N.C.
 4/4
  Gtr III
                                                         ~~~~~~~
|-------------10----12----|-13---------------13-15-16--(16)b17-----|
|----------10----10----10-|----9-------13--------------------------|
|-------10----------------|---------13-----------------------------|
|-11-12-------------------|------15--------------------------------|
|-------------------------|----------------------------------------|
|-------------------------|----------------------------------------|
|
| Gtrs IV, V
|-------------------------|----------------------------------------|
|-------------------------|----------------------------------------|
|--7--7-------------------|----------------------------------------|
|--7--7-------------------|----------------------------------------|
|--5--5-------------------|---------------/8-------(8)---7-----5-7-|
|-------------------------|----------------------------------------|


  Bb5    N.C.
                                                                ~~
|-/20-18-----------------------|----------8-6-----13-----------------|
|--------18--------------------|--------------6-------13-------------|
|-----------19-(19)------------|--------7-------7--------10----------|
|-------------------20-(20)-19-|-(19)S8---------------------10-12----|
|------------------------------|-------------------------------------|
|------------------------------|-------------------------------------|
|
|------------------------------|-------------------------------------|
|------------------------------|-------------------------------------|
|---3--3-----------------------|-------------------------------------|
|---3--3-----------------------|--------------3---(3)----------------|
|---1--1-----------------------|---3--5---1---------------1-----3-5--|
|------------------------------|-------------------------------------|

                                                         C5
|-------------------------20-15-------18-15-------|
|-------------11-14-13-11-------17----------17----|
|-------10-12----------------------17----------17-|
|-10-12-------------------------------------------|
|-------------------------------------------------|
|-------------------------------------------------|


|-18--15-20-15-------------------|
|--------------17-15-------------|
|--------------------17-15-------|
|--------------------------17----|
|--------------------------------|
|--------------------------------|


|-------------------------------------------------|
|-------------------------------------------------|
|--5-----5-----------------------------5-----5----|
|--5-----5-----------------------------5-----5----|
|--3-----3-----------------------------3-----3----|
|-------------------------------------------------|


|--------------------------------|
|--------------------------------|
|-(5)----------------------------|
|-(5)----------------------------|
|-(3)----------------------------|
|--------------------------------|


  A5        Dbm        Em                                 Dbm
                                                                               ~~
|-----------------9-10-12--17-(17)-(17)b18---|
|--------------10----------------------------|
|----9---10-12-------------------------------|
|-11-----------------------------------------|
|--------------------------------------------|
|--------------------------------------------|


|-(17)---9-9-10---10-12--12---12s15----|
|--------------------------------------|
|--------------------------------------|
|--------------------------------------|
|--------------------------------------|
|--------------------------------------|


|--------------------------------------------|
|--------------------------------------------|
|--2---2-------------------------------------|
|--2---2----------2----(2)--2--------------5-|
|--0---0----------4----(4)--4--------------7-|
|--------------------------------------------|


|--------------------------------------|
|--------------------------------------|
|---------------6----(6)----6-----6----|
|--(5)-5--------2----(2)----2-----2----|
|--(7)-7--------4----(4)----4-----4----|
|--------------------------------------|


  D5    N.C.
|-17-13-13-12-------12-8-8--------------------|
|-------------13-----------10-8------------10-|
|----------------14-------------9-------10----|
|---------------------------------11-12-------|
|---------------------------------------------|
|---------------------------------------------|
|
|---------------------------------------------|
|---------------------------------------------|
|--7-----7------------------------------------|
|--7-----7------------------------------------|
|--5-----5------------------------------------|
|---------------------------------------------|


|-------------------13-10----------10-13--17-13-------13-17-20-17-------17-|
|-13-11-10-------10-------11----11-----------------15----------------18----|
|-------------10-------------12-----------------14----------------19-------|
|----------12--------------------------------------------------------------|
|--------------------------------------------------------------------------|
|--------------------------------------------------------------------------|
|

|--------------------------------------------------------------------------|
|--------------------------------------------------------------------------|
|--------------------------------------------------------------------------|
|--------------------------------------------------------------------------|
|----------------------------/8-------(8)--------7--------5--------7-------|
|--------------------------------------------------------------------------|


  Bb5  N.C.
|----------------15-18-15-15----15-18-15-15----15-|
|-------------18-------------18-------------18----|
|-19---(19)\--------------------------------------|
|-------------------------------------------------|
|-------------------------------------------------|
|-------------------------------------------------|
|

|-------------------------------------------------|
|-------------------------------------------------|
|--3-3--------------------------------------------|
|--3-3--------------------------------------------|
|--1-1--------------------------------------------|
|-------------------------------------------------|


|----10-13-10-10----10-13-10-10----10-------5-----5-8-6-5-------|
|-13-------------13-------------13--------6-----6---------8-6-5-|
|--------------------------------------7------7-----------------|
|---------------------------------------------------------------|
|---------------------------------------------------------------|
|---------------------------------------------------------------|
|

|---------------------------------------------------------------|
|---------------------------------------------------------------|
|---------------------------------------------------------------|
|-----------------------------3-------(3)-----------------------|
|--3--------5--------1------------------------1-----3-----5-----|
|---------------------------------------------------------------|


  C5
|-10b12-(10)-----------8-12-8-12-|
|------------------5-8-----------|
|----------------7---------------|
|--------------8-----------------|
|--------------------------------|
|--------------------------------|


|-/15--10-12-10-/20-18-17-/19-17-16-/18-16-15-/17-15-14-/17-15-14-/16-14-13|
|--------------------------------------------------------------------------|
|--------------------------------------------------------------------------|
|--------------------------------------------------------------------------|
|--------------------------------------------------------------------------|
|--------------------------------------------------------------------------|


|--------------------------------|
|--------------------------------|
|--5------5------------5----5----|
|--5------5------------5----5----|
|--3------3------------3----3----|
|--------------------------------|


|--------------------------------------------------------------------------|
|--------------------------------------------------------------------------|
|--(5)---------------------------------------------------------------------|
|--(5)---------------------------------------------------------------------|
|--(3)---------------------------------------------------------------------|
|--------------------------------------------------------------------------|

  A5       Dbm             Em                  Dbm
|-12-13-15-18-(18)-17-(17)-12-|-(12)-15-(15)----------------10-12-13-15---||
|-14-15-17-20-(20)-18-(18)-14-|-(14)-17-(17)----8--10-11-13-11-13-15-17---||
|-----------------------------|-----------------9--10-12-14---------------||
|-----------------------------|-------------------------------------------||
|-----------------------------|-------------------------------------------||
|-----------------------------|-------------------------------------------||


|-----------------------------|-------------------------------------------||
|-----------------------------|-------------------------------------------||
|--2--2-----------------------|--------------6-(6)-----6-----6------------||
|--2--2-----2--(2)--2-------5-|--(5)--5------2-(2)-----2-----2------------||
|--0--0-----4--(4)--4-------7-|--(7)--7------4-(4)-----4-----4------------||
|-----------------------------|-------------------------------------------||


   Interlude
    D5                                                           Bb5
    Gtr III
     PM---|     PM--------|     PM----------|     PM-------------------|
||----------------------------------|----------------------------------|
||o---------------------------------|----------------------------------|
||-----------7---------------7------|----------7---------------7---3---|
||---7--7-7--7--7-7--7--7-7--7--7-7-|--7--7-7--7--7-7--7--7-7--7---3---|
||o--5--5-5--5--5-5--5--5-5--5--5-5-|--5--5-5--5--5-5--5--5-5--5---1---|
||----------------------------------|----------------------------------|


|   Gtr IV
||--10--8-----------10--8-----------|-10--8-----------10--8------/10-|
||o---------10--6-----------10--6---|---------10--6-----------10-----|
||----------------------------------|--------------------------------|
||----------------------------------|--------------------------------|
||o---------------------------------|--------------------------------|
||----------------------------------|--------------------------------|


|   Gtr V
||--13-12---10------13-12---10------|-13-12---10------13-12---10-/13-|
||o------------10--------------10---|------------10------------------|
||----------------------------------|--------------------------------|
||----------------------------------|--------------------------------|
||o---------------------------------|--------------------------------|
||----------------------------------|--------------------------------|


                                                                 C5
        PM|     PM--------|     PM----------|     PM-------------------|
|-----------------------------------|----------------------------------|
|-----------------------------------|----------------------------------|
|--(3)-------3---------------3------|----------3---------------3---5---|
|--(3)--3-3--3--3-3--3--3-3--3--3-3-|--3--3-3--3--3-3--3--3-3--3---5---|
|--(1)--1-1--1--1-1--1--1-1--1--1-1-|--1--1-1--1--1-1--1--1-1--1---3---|
|-----------------------------------|----------------------------------|


|-(10)--8----6------10--8----6------|-10--8----6------10--8----6-/12-|
|---------------6---------------6---|-------------6------------------|
|-----------------------------------|--------------------------------|
|-----------------------------------|--------------------------------|
|-----------------------------------|--------------------------------|
|-----------------------------------|--------------------------------|


|-(13)-12---10------13-12---10------|-13-12---10------13-12---10-/15-|
|--------------11--------------11---|------------11------------------|
|-----------------------------------|--------------------------------|
|-----------------------------------|--------------------------------|
|-----------------------------------|--------------------------------|
|-----------------------------------|--------------------------------|


  C5
        PM|     PM--------|     PM----------|     PM--------|      PM----|
|-----------------------------------|------------------------------------|
|-----------------------------------|------------------------------------|
|--(5)-------5---------------5------|----------5---------------5---------|
|--(5)--5-5--5--5-5--5--5-5--5--5-5-|--5--5-5--5--5-5--5--5-5--5---5-5---|
|--(3)--3-3--3--3-3--3--3-3--3--3-3-|--3--3-3--3--3-3--3--3-3--3---3-3---|
|-----------------------------------|------------------------------------|
|
|-(12)-10----8------12-10----8------|-12-10----8------12-10----8-/13---|
|---------------8---------------8---|-------------8--------------------|
|-----------------------------------|----------------------------------|
|-----------------------------------|----------------------------------|
|-----------------------------------|----------------------------------|
|-----------------------------------|----------------------------------|
|
|-(15)-13---12------15-13---12------|-15-13---12------15-13---12-/17---|
|--------------13--------------13---|------------13--------------------|
|-----------------------------------|----------------------------------|
|-----------------------------------|----------------------------------|
|-----------------------------------|----------------------------------|
|-----------------------------------|----------------------------------|


  A5         Dbm             Em                Dbm
|-------------------------------|---------------------------------||
|-------------------------------|--------------------------------o||
|---2---2-----------------------|---------------6--(6)--6---6-----||
|---2---2-----2--(2)--2-------5-|--(5)--5-------2--(2)--2---2-----||
|---0---0-----4--(4)--4-------7-|--(7)--7-------4--(4)--4---4----o||
|-------------------------------|---------------------------------||
|
|                                                           ~~~~
|-(13)-15-12-13-(13)-15-(15)-13-|-(13)--9--(9)-10-(10)-12-(12)----||
|-------------------------------|--------------------------------o||
|-------------------------------|---------------------------------||
|-------------------------------|---------------------------------||
|-------------------------------|--------------------------------o||
|-------------------------------|---------------------------------||
|
|-(17)-18-15-17-(17)-18-(18)-17-|-(17)-12-(12)-13-(13)-15-(15)----||
|-------------------------------|--------------------------------o||
|-------------------------------|---------------------------------||
|-------------------------------|---------------------------------||
|-------------------------------|--------------------------------o||
|-------------------------------|---------------------------------||


 Guitar Solo
  D5           N.C.
  Gtrs I, II
    |  |  |
    /  /  /

  Gtr III
                                 ~~~~
|--12-10---------------------|-----------------|
|--------10---------------13-|-(13)------11-11-|
|-----------10----10-(10)----|-----------------|
|--------------12------------|-----------------|
|----------------------------|-----------------|
|----------------------------|-----------------|
|
| Gtr IV
|   ~~~                          ~~~~~~~~~~~~~~~
|-/13---------------------17-|-(17)------------|
|----------------------------|-----------------|
|----------------------------|-----------------|
|----------------------------|-----------------|
|----------------------------|-----------------|
|----------------------------|-----------------|
|
| Gtr V
|   ~~~                          ~~~~~~~~~~~~~~~
|-/10---------------------13-|-(13)------------|
|----------------------------|-----------------|
|----------------------------|-----------------|
|----------------------------|-----------------|
|----------------------------|-----------------|
|----------------------------|-----------------|


  Bb5             N.C.
    |   |   |
    /   /   /

                                      ~~~~
|---------------------------------|-----------------|
|-(11)-10-(10)-11-(11)-13-(13)S=6-|--(6)------6-6s8-|
|---------------------------------|-----------------|
|---------------------------------|-----------------|
|---------------------------------|-----------------|
|---------------------------------|-----------------|
|
|~~~~~~                               ~~~~
|-/10--------------------------13-|-(13)------------|
|---------------------------------|-----------------|
|---------------------------------|-----------------|
|---------------------------------|-----------------|
|---------------------------------|-----------------|
|---------------------------------|-----------------|
|
|~~~~~~                               ~~~~
|--/6--------------------------10-|-(10)------------|
|---------------------------------|-----------------|
|---------------------------------|-----------------|
|---------------------------------|-----------------|
|---------------------------------|-----------------|
|---------------------------------|-----------------|


  C5                   C5
    |  |  |          |  |     |
    /  /  /          o  /     /

                                   ~~~~~~~~~
|-------------------------|-------------------|
|--(8)-6-(6)-5-(5)-6-8----|-------------------|
|----------------------/7-|--(7)-5-5----(5)-5-|
|-------------------------|-------------------|
|-------------------------|-------------------|
|-------------------------|-------------------|
|
|   ~~~~                      ~~~~
|-/12------------------15-|-(15)--------------|
|-------------------------|-------------------|
|-------------------------|-------------------|
|-------------------------|-------------------|
|-------------------------|-------------------|
|-------------------------|-------------------|
|
|   ~~~~                      ~~~~
|--/8------------------12-|-(12)--------------|
|-------------------------|-------------------|
|-------------------------|-------------------|
|-------------------------|-------------------|
|-------------------------|-------------------|
|-------------------------|-------------------|


  A5      Dbm          Em              Dbm(type 2)
    | |    |  |  |      |     |  |      |   |  ||
    / /    /  /  /      /     /  /      /   /  //

|----------6-(6)-5-(5)----|------------/5--(5)--6-5-|
|-----5-8---------------8-|--(8)-6-(6)--------------|
|---6---------------------|-------------------------|
|-------------------------|-------------------------|
|-------------------------|-------------------------|
|-------------------------|-------------------------|
|
|-\12-----15-----------18-|-(18)-------17-(17)------|
|-------------------------|-------------------------|
|-------------------------|-------------------------|
|-------------------------|-------------------------|
|-------------------------|-------------------------|
|-------------------------|-------------------------|
|
|--/9-----12-----------15-|-(15)-------18-(18)------|
|-------------------------|-------------------------|
|-------------------------|-------------------------|
|-------------------------|-------------------------|
|-------------------------|-------------------------|
|-------------------------|-------------------------|


  D5         N.C.
    |  ||
    /  //

    ~~~~
|--(5)-------------10-12-|-(12)-13-(13)-12-(12)----------------|
|---------------10-------|----------------------13-(13)-13b15==|
|------------10----------|-------------------------------------|
|--------/12-------------|-------------------------------------|
|------------------------|-------------------------------------|
|------------------------|-------------------------------------|
|
|   ~~~~                     ~~~~~~~~~~~~~~~~~~~~~~~~~~~~~~~~~~~
|-/13-----------------17-|-(17)--------------------------------|
|------------------------|-------------------------------------|
|------------------------|-------------------------------------|
|------------------------|-------------------------------------|
|------------------------|-------------------------------------|
|------------------------|-------------------------------------|
|
|   ~~~~                     ~~~~~~~~~~~~~~~~~~~~~~~~~~~~~~~~~~~
|-/10-----------------13-|-(13)--------------------------------|
|------------------------|-------------------------------------|
|------------------------|-------------------------------------|
|------------------------|-------------------------------------|
|------------------------|-------------------------------------|
|------------------------|-------------------------------------|


  Bb5              N.C.
    |     |    |
    /     /    /

                                        ~~~~
|-----------------------------------|---------|
|-(13)r-(13)-(13)---13b15==(13)r----|---------|
|--------------------------------10-|-(10)----|
|-----------------------------------|---------|
|-----------------------------------|---------|
|-----------------------------------|---------|
|
|~~~~~~~                                ~~~~
|-/10----------------------------13-|-(13)----|
|-----------------------------------|---------|
|-----------------------------------|---------|
|-----------------------------------|---------|
|-----------------------------------|---------|
|-----------------------------------|---------|
|
|~~~~~~~                                ~~~~
|--/6----------------------------10-|-(10)----|
|-----------------------------------|---------|
|-----------------------------------|---------|
|-----------------------------------|---------|
|-----------------------------------|---------|
|-----------------------------------|---------|


  C5                               C5
    |  |  |                 |       |     |
    /  /  /                 o       /     /

                                          ~~~~
|-------------------------------------|----------------12-(12)s15-|
|-------------------------------------|---------------------------|
|---9-10-12---------------9--12-10--9-|--(9)------9-10------------|
|-----------10-(10)----10-------------|--------12-----------------|
|-------------------12----------------|---------------------------|
|-------------------------------------|---------------------------|
|
|   ~~~                                   ~~~~
|-/12------------------------------15-|-(15)----------------------|
|-------------------------------------|---------------------------|
|-------------------------------------|---------------------------|
|-------------------------------------|---------------------------|
|-------------------------------------|---------------------------|
|-------------------------------------|---------------------------|
|
|   ~~~                                   ~~~~
|--/8------------------------------12-|-(12)----------------------|
|-------------------------------------|---------------------------|
|-------------------------------------|---------------------------|
|-------------------------------------|---------------------------|
|-------------------------------------|---------------------------|
|-------------------------------------|---------------------------|


  A5                     Dbm             Em                            Dbm(type 2)
    |   |                 |   |   |       |           |          |      |   |  ||
    /   /                 /   /   /       /           /          /      /   /  //

|-(15)-12----------------12-(12)s17-(17)-12-------|
|---------13--------------------------------13----|
|------------12--------------------------------12-|
|---------------14s10-----------------------------|
|---------------------12--------------------------|
|-------------------------------------------------|

|-----------------17-18-(18)---17-16--||
|-------------------------------------||
|-------------------------------------||
|--14s=10-----------------------------||
|---------12-(12)---------------------||
|-------------------------------------||


|-\12--------------------15--------------18-------|
|-------------------------------------------------|
|-------------------------------------------------|
|-------------------------------------------------|
|-------------------------------------------------|
|-------------------------------------------------|


|-(18)---------------17-(17)----------|
|-------------------------------------|
|-------------------------------------|
|-------------------------------------|
|-------------------------------------|
|-------------------------------------|


|--/9--------------------12--------------15-------|
|-------------------------------------------------|
|-------------------------------------------------|
|-------------------------------------------------|
|-------------------------------------------------|
|-------------------------------------------------|


|-(15)---------------18-(18)----------|
|-------------------------------------|
|-------------------------------------|
|-------------------------------------|
|-------------------------------------|
|-------------------------------------|


 Breakdown
  Half-Time Q=81
  D5                 Bb5
  Gtrs IV, V
|------------------|-----------------|
|------------------|-----------------|
|------------------|-3-3-3--3-3-3-3--|
|--0-0-0--0-0-0-0--|-3-3-3--3-3-3-3--|
|--0-0-0--0-0-0-0--|-1-1-1--1-1-1-1--|
|--0-0-0--0-0-0-0--|-----------------|
|
| Gtr III
|  ~~
|-17---------------|-----------------|
|------------------|-----------------|
|------------------|-----------------|
|------------------|-----------------|
|------------------|-----------------|
|------------------|-----------------|


  C5                 F5
|------------------|-----------------------|
|------------------|-----------------------|
|-5-5-5-5-5-5-5-5--|-----------------------|
|-5-5-5-5-5-5-5-5--|-3-3-3-3-3-3-3-3-3-3-3-|
|-3-3-3-3-3-3-3-3--|-3-3-3-3-3-3-3-3-3-3-3-|
|------------------|-3-3-3-3-3-3-3-3-3-3-3-|
|
|------------------|-----------------------|
|------------------|-----------------------|
|------------------|-----------------------|
|------------------|-----------------------|
|------------------|-----------------------|
|------------------|-----------------------|


  G5                      A5     Bb5
  Gtrs IV, V
|-----------------------|-----------------|
|-----------------------|-----------------|
|-----------------------|-2-2-2--3-3-3-3--|
|-5-5-5-5-5-5-5-5-5-5-5-|-2-2-2--3-3-3-3--|
|-5-5-5-5-5-5-5-5-5-5-5-|-0-0-0--1-1-1-1--|
|-5-5-5-5-5-5-5-5-5-5-5-|-----------------|


  C5                                  Dbm6
|-----------------------|--------------------------|
|-----------------------|--------------------------|
|-5-5-5-5-5-5-5-5-5-5-5-|-5-5-5-5-5-5--------------|
|-5-5-5-5-5-5-5-5-5-5-5-|-5-5-5-5-5-5-7-7-7-7-7-7--|
|-3-3-3-3-3-3-3-3-3-3-3-|-3-3-3-3-3-3-4-4-4-4-4-4--|
|-----------------------|--------------------------|


  D5                Bb5
|-----------------|-----------------|
|-----------------|-----------------|
|-----------------|-3-3-3--3-3-3-3--|
|-0-0-0--0-0-0-0--|-3-3-3--3-3-3-3--|
|-0-0-0--0-0-0-0--|-1-1-1--1-1-1-1--|
|-0-0-0--0-0-0-0--|-----------------|


  C5                  F5
|------------------|-----------------------|
|------------------|-----------------------|
|-5-5-5-5-5-5-5-5--|-----------------------|
|-5-5-5-5-5-5-5-5--|-3-3-3-3-3-3-3-3-3-3-3-|
|-3-3-3-3-3-3-3-3--|-3-3-3-3-3-3-3-3-3-3-3-|
|------------------|-3-3-3-3-3-3-3-3-3-3-3-|


  G5                      A5     Bb5
|-----------------------|-----------------|
|-----------------------|-----------------|
|-----------------------|-2-2-2--3-3-3-3--|
|-5-5-5-5-5-5-5-5-5-5-5-|-2-2-2--3-3-3-3--|
|-5-5-5-5-5-5-5-5-5-5-5-|-0-0-0--1-1-1-1--|
|-5-5-5-5-5-5-5-5-5-5-5-|-----------------|


  C5
|-----------------------|--------------------------||
|-----------------------|--------------------------||
|-5-5-5-5-5-5-5-5-5-5-5-|-5-5-5-5-5-5-5-5-5-5-5-5--||
|-5-5-5-5-5-5-5-5-5-5-5-|-5-5-5-5-5-5-5-5-5-5-5-5--||
|-3-3-3-3-3-3-3-3-3-3-3-|-3-3-3-3-3-3-3-3-3-3-3-3--||
|-----------------------|--------------------------||


 Bridge
  D5
 6/8
  Gtr III
                                                   PM|
|------------------------------------------------------|
|------------------------------------------------------|
|------------------------------------------------------|
|--0----------------------------------------(0)--------|
|--0----------------------------------------(0)----0-0-|
|--0----------------------------------------(0)----0-0-|


| Gtr IV
|------------------------------------------------------|
|------------------------------------------------------|
|-12-(12)b14-(12)-(12)b14-(12)-(12)b14-(12)-----10-----|
|------------------------------------------------------|
|------------------------------------------------------|
|------------------------------------------------------|
									


911Tabs.com - tabs search engine
More "Mia" tabs @ 911Tabs

A Guide to Tab NotationGuitar TabsGuitar ResourcesGuitar TabsPrivacy PolicyGuitar TabsContact

Online Guitar Lessons

Avenged Sevenfold Guitar Tabs - Over 200,000 chords, guitar and bass tabs with video. Find tabs, video guitar lessons and more.