Music Guitar Tab, Tabs with MP3, ringtones, ringtone, concert tickets, guitar lessons, guitar tabs easy, guitar hero

Guitar Tabs Guitar Chords Bass Tabs
 Web Guitar Tabs
Guitar Lessons
 
Lyrics abcdefghijklmnopqrstuvwxyz # Top 100 Lyrics

Guitar Tabs
Guitar Tab






click on, click off


Tab for "Lips Of Deciet" - Avenged Sevenfold Rating 4Print Guitar Tabs
select alternative YouTube videos below...
Tweak the search term to refine the YouTube video results:         
Share on Facebook

Learn to play this song and others via online guitar lessons @ JamPlay.com!

-------------------------------------------------------------------------------
			     AVENGED SEVENFOLD- LIPS OF DECIET
-------------------------------------------------------------------------------
Tabbed by Ricky
Email: stuey_12@hotmail.com

Tuning:eBGDAD (drop D)

Listen to the song for the rythems >.<

INTRO						 x3         x1  
e|-----------------------------------------------|----------|-----------------|
B|-----------------------------------------------| ---------|-----------------|
G|-3--7-9-9h10-9-7-7--9-9h10-9-7--10-12-14-12-10-|--5-7-9-7-|--5-7-9-7-5\-----|
D|-3--7-7-7----7-7-8--8-8----8-7--10-10-10-10-10-|--5-5-5-5-|--5-5-5-5-5\--7--|
A|-----------------------------------------------|----------|--------------7--|
D|-----------------------------------------------|----------|--------------7--|

						 x1         x1
e|-----------------------------------------------|----------|-----------------|
B|-----------------------------------------------| ---------|-----------------|
G|-3--7-9-9h10-9-7-7--9-9h10-9-7--10-12-14-12-10-|--5-7-9-7-|--5-7-9-7-5\-----|
D|-3--7-7-7----7-7-8--8-8----8-7--10-10-10-10-10-|--5-5-5-5-|--5-5-5-5-5\--7--|
A|-----------------------------------------------|----------|--------------7--|
D|-----------------------------------------------|----------|--------------7--|

RIFF A
1:09 x2
e|-----------------------------------------|
B|-----------------------------------------|
G|--2-5-3-2-0-5-0-2-2-0-5-7-10-9-10-12-14--|
D|--0-0-0-0-0-0-0-0-3-0-0-0-0--0-0---------|
A|-----------------------------------------|
D|-----------------------------------------|

RIFF B
1:28 x2
e|-----------------------------------------|
B|-----------------------------------------|
G|--2-5-3-2-0-5-0-2-----5-7-10-9-10--------|
D|------------------3-0-------------12-14--|
A|-----------------------------------------|
D|-----------------------------------------|

RIFF C
1:46
e|---------------------------------------------------------------------------|
B|---------------------------------------------------------------------------|
G|--14-12-10-12-10h12p10-9-7-9-10-9-7h9p7-5-7--------------------------------|
D|---------------------------------------------------------------------------|
A|---------------------------------------------------------------------------|
D|---------------------------------------------------------------------------|

RIFF D
2:10
e|---------------------------------------|----------------|
B|---------------------------------------|----------------|
G|--9-10-9-10-9-12--14--9-10-9-10-9-7-9--|----------------|
D|---------------------------------------|-7-7-7-7--3-3-3-|
A|--7-8--7-8--7-10--12--7-8--7-8--7-5-7--|-7-7-7-7--3-3-3-|
D|---------------------------------------|-7-7-7-7--3-3-3-|
				    	   x x x x  x x x

RIFF C
2:21 x4
e|---------------------|
B|---------------------|
G|---------------------|
D|--0-10-8-10-12-10-0--|
A|--0-10-8-10-12-10-0--|
D|--0-10-8-10-12-10-0--|

RIFF D
2:52 x4
e|-------------------|
B|-------------------|
G|--7--10--7--10--7--|
D|--7--7---7--7---9--|
A|-------------------|
D|-------------------|

REPEAT RIFF C
3:01 x2

RIFF E
3:10 x1
e|---------------------------------------------|
B|---------------------------------------------|
G|--7--10--9--14--12--14--12--10--9--10--9--7--|
D|---------------------------------------------|
A|--5--8---7--12--10--12--10--8---7--8---7--5--|
D|---------------------------------------------|

REPEAT RIFF D
3:19 x3

RIFF F
3:28 x3		       AFTER 3RD TIME
e|--------------------|---------------------|
B|--------------------|---------------------|
G|--7-----------------|--7--8--7---7-----7--|
D|--7--5--3--0--3--0--|--7--8--7---7--7--7--|
A|--5--5--3--0--3--0--|--5--6--5---5--7--5--|
D|-----5--3--0--3--0--|---------------7-----|

OUTRO
3:45 x4      x3       x1
e|-----------|--------|------------------|
B|-----------|--------|------------------|
G|-----------|--------|--10-10-11-11-12--|
D|--0--7--8--|--3--2--|------------------|
A|--0--7--8--|--3--2--|------------------|
D|--0--7--8--|--3--2--|------------------|
									


911Tabs.com - tabs search engine
More "Lips Of Deciet" tabs @ 911Tabs

A Guide to Tab NotationGuitar TabsGuitar ResourcesGuitar TabsPrivacy PolicyGuitar TabsContact

Online Guitar Lessons

Avenged Sevenfold Guitar Tabs - Over 200,000 chords, guitar and bass tabs with video. Find tabs, video guitar lessons and more.