Music Guitar Tab, Tabs with MP3, ringtones, ringtone, concert tickets, guitar lessons, guitar tabs easy, guitar hero

Guitar Tabs Guitar Chords Bass Tabs
 Web Guitar Tabs
Guitar Lessons
 
Lyrics abcdefghijklmnopqrstuvwxyz # Top 100 Lyrics

Guitar Tabs
Guitar Tab






click on, click off


Tab for "Lips Of Deceit" - Avenged Sevenfold Rating 4Print Guitar Tabs
select alternative YouTube videos below...
Tweak the search term to refine the YouTube video results:         
Share on Facebook

Learn to play this song and others via online guitar lessons @ JamPlay.com!


Song: Lips of Deceit
Band: Avenged Sevenfold

I couldn’t find the right tab so I did it myself. if you listen to
 the song you should get it.mostly Gtr I but i put some Gtr II.
Tuning: drop D(DADGBe)

~ let ring
x palm mute
h Hammer on
/ slide

0:00-0:38
|---------------------------------------------------------|
|---------------------------------------------------------|
|-2/7-7-9h10-9-7/3-9-10-9-7/10-12-14-12-10/5h7-9-7-5/7----|
|-2/7-7-7--7-7-7/3-7--7-7-7/10-10-10-10-10/5-5-5-5-5/7----|
|---------------------------------------------------------|
|---------------------------------------------------------|

at 0:39 end like this

0:39-0:46
listen to the song for the>>>>>>>>>> 2
some are palm mute and some are not  2
                                     0
Gtr I
|-------------|
|-------------|
|--5/2----2---|
|--5/2----2---|
|---------0---|
|-------------|
gtr II
|------------|
|------------|
|--6-2-5-9---|
|--x-x-x-x---|
|--4-0-3-7---|
|------------|

0:47-1:02
|-------------------------------------------------------|
|-------------------------------------------------------|
|-2/7-9-10-9-7/3-9-10-9-7/10-12-14-12-10/5-7-9-7-5/7----|
|-2/7-7--7-7-7/3-7--7-7-7/10-10-10-10-10/5-5-5-5-5/7----|
|-------------------------------------------------------|
|-------------------------------------------------------|

1:03-1:05
|-------------|
|-------------|
|--5/2----2---|
|--5/2----2---|
|---------0---|
|-------------|

1:06-1:08
|----------------|
|----------------|
|--2~------------|
|--2~------------|
|--0~------------|
|----------------|

1:09-1:28 do it all twice
|----------------------------------|
|----------------------------------|
|--2-2-2-5-3-3-3-2-0-0-5-0-2-2-2---|
|---0-0-0---0-0-0---0-0----0-0-0---|
|----------------------------------|
|----------------------------------|

                         (last 10 harmonic)
|-----------------------------------------|
|------------------------------8-10-------|
|-2-0-2-2-2--5-7-7-7-10-9-9-10------------|
|------0-0-0----0-0-0----0-0--------------|
|-----------------------------------------|
|-----------------------------------------|

1:28-1:37                                         (last 10 harmonic)
|-----------------------------------------------------------|-------|
|-----------------------------------------------------------|-8(10)-|
|-2-2-2-5-3-3-3-2-0-0-5-0-2-2-2-2-0-------5-7-7-7-10-9-9-10-|-------|
|-----------------------------------3-3-3-------------------|-------|
|-----------------------------------------------------------|-------|
|-----------------------------------------------------------|-------|
                                                                            
1:37-1:50(do this at the end of that ^)                                     
|---------------------------------------------------|
|-------------8—8h10-8------------------------------|
|---10-9-9-10----------10-12-10-9-7-9-10-9-7-5-7~---|
|----------------------------------------------0~---|
|---------------------------------------------------|
|---------------------------------------------------|

1:50-2:10
no guitar

2:10-2:29(twice)
|--------------------------------------|
|--------------------------------------|
|--9/10-10-10-10--9-9-9-9/10-10-10-10--|
|--x-x---x--x--x--x-x-x-x-x---x--x--x--|
|--7/8---8--8--8--7-7-7-7/8---8--8--8--|
|--------------------------------------|

|-------------------------------------------------|
|-------------------------------------------------|
|-9-9-9-9/-12-12-12-12-12-12/14-14-14-10-10-10-10-|
|-x-x-x-x---x--x--x—x---x--x--x—-x--x--x—-x--x--x-|
|-7-7-7-7/-10-10-10-10-10-10/12-12-12--8--8--8—-8-|
|-------------------------------------------------|

|--------------------------------------|
|--------------------------------------|
|--9/10-10-10-10--9-9-9-9/10-10-10-10--|
|--x-x---x--x--x--x-x-x-x-x---x--x--x--|
|--7/8---8--8--8--7-7-7-7/8---8--8--8--|
|--------------------------------------|

|-------------------------------------------|
|-------------------------------------------|
|-9-9-9--5-5-5-5-5-5-5----------------------|
|-x-x-x--x-x-x-x-x-x-x--5555-3333-----------|
|-7-7-7--3-3-3-3-3-3-3--5555-3333-----------|
|-----------------------5555-3333-----------|

2:29-2:31
|--------------------|
|--------------------|
|--------------------|
|--5--0000-0-0-0-----|
|--5--0000-0-0-0-----|
|--5--0000-0-0-0-----|

2:31-2:52
|-----------------------------------------|
|-----------------------------------------|
|--------5/3------3/5------5/7—-7/--------|
|-0-000—-5/3-000—-3/5-000—-5/7—-7/--------|
|-0-000—-3/1-000—-1/3-000—-3/5—-5/--------|
|-0-000------000------000-----------------|
    xxx      xxx      xxx             

2:52-3:01
|-------------------------------------------|
|-------------------------------------------|
|---7-77-10-10-10-7-77-10-10-10--5-5-5-5----|
|---7-77--7--7--7-7-77--7--7--7--7-7-7-7----|
|-------------------------------------------|
|-------------------------------------------|
      xx     x  x   xx     x  x         

2:57
|-------------|
|-------------|
|-------------|
|-0~----------|
|-0~----------|
|-0~----------|

2:57-3:19
|---------------------------------------------------|
|---------------------------------------------------|
|--2222222-3333333-5555555-7777777------------------|
|--2222222-3333333-5555555-7777777------------------|
|--0000000-1111111-3333333-5555555------------------|
|---------------------------------------------------|
3:19-3:26
|------------------------------|
|------------------------------|
|---7-7-10-10--7-7-7-5-777-----|
|---7-7--7--7--7-7-7-7-777-----|
|------------------------------|
|------------------------------|
      x     x  x x                
3:26
    Gtr I      Gtr II
|---------|----------|
|---------|----------|
|--7-8-7--|----------|
|--7-7-7--|--7-8-7---|
|---------|--7-8-7---|
|---------|--7-8-7---|

3:28-3:35
|---------------------|
|---------------------|
|--7------------------|
|--7-7-6--------------|
|--5-7-6--------------|
|----7-6---0005323----|

3:35-3:44
|---------------------|
|---------------------|
|--7-8-7--------------|    listen for       
|--7-8-7--------------|    the order… 
|--5-6-5--------------|
|---------------------|

|---------------------|
|---------------------|
|--7-8-7---8----------|
|--7-8-7---x----------|
|--5-6-5---6----------|
|---------------------|

|---------------------|
|---------------------|
|--7-8-7--------------|
|--7-8-7---00---------|
|--5-6-5---00---------|
|----------00---------|
           xx 
3:44-3:50
|---------------------------------------------------|
|---------------------------------------------------|
|--2222222-----------------------3333333--2222222---|
|--2222222--0000-0-0--0000-0-0---3333333--2222222---|
|--0000000--0000-0-0--0000-0-0---1111111--0000000---|
|-----------0000-0-0--0000-0-0----------------------|
            xxxx x x  xxxx x x          
3:50-4:09
|---------------------------------------------------|
|---------------------------------------------------|
|--2222222-3333333-5555555-7777777------------------|
|--2222222-3333333-5555555-7777777------------------|
|--0000000-1111111-3333333-5555555------------------|
|---------------------------------------------------|

end on 
|------|
|------|
|--7---|
|--7---| don't let ring
|--5---|
|------|

thats all any corrections send to 

magnificent_adroitness2hotmail.com

-itsmaximo


									


911Tabs.com - tabs search engine
More "Lips Of Deceit" tabs @ 911Tabs

A Guide to Tab NotationGuitar TabsGuitar ResourcesGuitar TabsPrivacy PolicyGuitar TabsContact

Online Guitar Lessons

Avenged Sevenfold Guitar Tabs - Over 200,000 chords, guitar and bass tabs with video. Find tabs, video guitar lessons and more.