Music Guitar Tab, Tabs with MP3, ringtones, ringtone, concert tickets, guitar lessons, guitar tabs easy, guitar hero

Guitar Tabs Guitar Chords Bass Tabs
 Web Guitar Tabs
Guitar Lessons
 
Lyrics abcdefghijklmnopqrstuvwxyz # Top 100 Lyrics

Guitar Tabs
Guitar Tab






click on, click off


Tab for "I Wont See You Tonight Part 1" - Avenged Sevenfold Rating 4Print Guitar Tabs
select alternative YouTube videos below...
Tweak the search term to refine the YouTube video results:         
Share on Facebook

Learn to play this song and others via online guitar lessons @ JamPlay.com!

Guitars 4 + 5 are the notes played on the piano in the song, these aren't actually
guitar parts so, when learning this song, you don't need to learn guitars 4 + 5.


I WON'T SEE YOU TONIGHT PART 1
As recorded by Avenged Sevenfold
(From the 2003 Album WAKING THE FALLEN)
Words and Music by Avenged Sevenfold
Arranged by Avenged Sevenfold

Gtr I (D A D G B E) - 'Guitar 1'
Gtr II (D A D G B E) - 'Guitar 2'
Gtr III (D A D G B E) - 'Guitar 3 (Overdub)'
Gtr IV (D A D G B E) - 'Piano (Left Hand)'
Gtr V (D A D G B E) - 'Piano (Right Hand)'
Gtr VI (D A D G B E) - 'Clean Guitar'

 Intro
  Slowly Q=63
  (G5)
 4/4
  Gtr IV
|-------------------------------------------------------|
|-------------------------------------------------------|
|-------------------------------------------------------|
|------5----------5-----------------5--------------5----|
|---5---------5-----------5------5-----5-------5------5-|
|-5-------5-----------5-------5------------5------------|
|
| Gtr V
|------------------------10-(10)------------------------|
|--------10-(10)-11-(11)--------------10-(10)-11-(11)---|
|-----12---------------------------12-------------------|
|-------------------------------------------------------|
|-------------------------------------------------------|
|-------------------------------------------------------|


  (F5)
|-------------------------------------------|
|-------------------------------------------|
|-------------------------------------------|
|-------3----------3---3------3-------3-----|
|----3---------3------------3------3----3---|
|--3-------3---------3----3------3--------3-|
|
|-------------------------------------------|
|-10---------------------------------10-----|
|------10-10-(10)-10-----10-----12----------|
|-------------------------------------------|
|-------------------------------------------|
|-------------------------------------------|


  (Eb)
|----------------------------------------------|
|----------------------------------------------|
|----------------------------------------------|
|------1---------1-------1-------1---------1---|
|----1--------1-------1-------1----------1-----|
|--1------1---------1------1---------1-------1-|
|
|--8-----10-(10)-------------------------------|
|-10-----11-(11)---11---11------10-(10)-11-----|
|------------------12---12---12----------------|
|----------------------------------------------|
|----------------------------------------------|
|----------------------------------------------|


  (D5)
|-------------------------------------------------|
|-------------------------------------------------|
|-------------------------------------------------|
|---------0----------0-----0-----------0----------|
|----0-------------0-----0---0-----0-------0---0--|
|--0---------0---------0--------0------------0----|
|
|--8---10---10--8-10------------------------------|
|-10---11---11-10-11----------------------10------|
|------------------------------11-12-(12)---------|
|-------------------------------------------------|
|-------------------------------------------------|
|-------------------------------------------------|


  (G5)                               (F5)
 2/4                                4/4
|----------------------------------|----------------------------------------|
|----------------------------------|----------------------------------------|
|----------------------------------|----------------------------------------|
|-----5-(5)-------(5)--------------|--------3------3------3------3------3---|
|---5------------------------------|------3------3-----3------3-------3-----|
|-5--------------------------------|---3------3------3------3------3------3-|
|
|-----------------17--(17)-(17)-18-|-(18)-------13-------13-----15---17-----|
|-----------10-11-15---11---10--15-|-(15)-------10-------10-----11---13-----|
|-------12-------------------------|----------------------------------------|
|----------------------------------|----------------------------------------|
|----------------------------------|----------------------------------------|
|----------------------------------|----------------------------------------|


  (Eb)
  Gtr IV
|-------------------------------------------|
|-------------------------------------------|
|-------------------------------------------|
|------1------1--------1--------1-----------|
|----1------1------1---------1--------1-(1)-|
|--1------1------1--------1--------1--------|
|
| Gtr V
|-17-----18-----15---(15)---15-13-11--------|
|-13-----15-----11---(11)------------11-----|
|-------------------------------------------|
|-------------------------------------------|
|-------------------------------------------|
|-------------------------------------------|
|
| Gtr I
|-------------------------------------------|
|-------------------------------------------|
|-------------------------------------------|
|-------------------------------------------|
|-------------------------------------------|
|-------------------------------------------|


  H=H                           Slightly Faster Q=67
  (D5)
 2/4
|-------------------------------|-------------||
|-------------------------------|-------------||
|-------------------------------|-------------||
|-----0-(0)------(0)------------|--(0)--------||
|---0---------------------------|-------------||
|-0-----------------------------|-------------||
|
|--------------9-10--11-10-9-10-|-(10)--------||
|-------------------------------|-------------||
|-------11--12------------------|-------------||
|-------------------------------|-------------||
|-------------------------------|-------------||
|-------------------------------|-------------||
|
|-------------------------------|--------(11)-||
|-------------------------------|-------------||
|-------------------------------|-------------||
|-------------------------------|-------------||
|-------------------------------|-------------||
|-------------------------------|-------------||


 Guitar Solo
  G5
 4/4
  Gtrs I, II
|--------------------------------------------|
|--------------------------------------------|
|--------------------------------------------|
|-5----5-5-5-5-5-5-5-5-5-5-5-5-5--5------5---|
|-5----5-5-5-5-5-5-5-5-5-5-5-5-5--5------5---|
|-5----5-5-5-5-5-5-5-5-5-5-5-5-5--5------5---|
|
| Gtr III
|--------------------------------------------|
|-6b8============================(6)r(6)p==3-|
|--------------------------------------------|
|--------------------------------------------|
|--------------------------------------------|
|--------------------------------------------|


  Eb5
|------------------------------------------------|
|------------------------------------------------|
|------------------------------------------------|
|-1--1-----1---1-----1--1--1-1--1--1-1-1-1-1-1-1-|
|-1--1-----1---1-----1--1--1-1--1--1-1-1-1-1-1-1-|
|-1--1-----1---1-----1--1--1-1--1--1-1-1-1-1-1-1-|
|
|-5-(5)b6-(5)-(5)b6-(5)--------------------------|
|-----------------------3-/6---(6)-------------3-|
|------------------------------------------------|
|------------------------------------------------|
|------------------------------------------------|
|------------------------------------------------|


  F5
|------------------------------------------------|
|------------------------------------------------|
|------------------------------------------------|
|-3--3-----3---3-----3--3--3-3--3--3-3-3-3-3-3-3-|
|-3--3-----3---3-----3--3--3-3--3--3-3-3-3-3-3-3-|
|-3--3-----3---3-----3--3--3-3--3--3-3-3-3-3-3-3-|
|
|-5-(5)b6-(5)-(5)b6-(5)--------------------------|
|-----------------------3-/6---(6)---------------|
|------------------------------------------------|
|------------------------------------------------|
|------------------------------------------------|
|------------------------------------------------|


  D5
|--------------------------------------------|
|--------------------------------------------|
|--------------------------------------------|
|-0----0-0-0--0---0---0-0--0--0-0-0--0-0-0-0-|
|-0----0-0-0--0---0---0-0--0--0-0-0--0-0-0-0-|
|-0----0-0-0--0---0---0-0--0--0-0-0--0-0-0-0-|
|
|--------------------------------------------|
|-4b7========(4)r-4-3------------------------|
|---------------------5---(5)-------/7---5h7-|
|--------------------------------------------|
|--------------------------------------------|
|--------------------------------------------|


  Eb5
|----------------------------------|
|----------------------------------|
|----------------------------------|
|--1-1-1-1-1-1-1-1-1-1-1-1-1-1-1-1-|
|--1-1-1-1-1-1-1-1-1-1-1-1-1-1-1-1-|
|--1-1-1-1-1-1-1-1-1-1-1-1-1-1-1-1-|
|
|----------------------------------|
|----------------------------------|
|-\3---------------------------3h5-|
|----------------------------------|
|----------------------------------|
|----------------------------------|


  Bb5              F5
|----------------------------------------------|
|----------------------------------------------|
|----------------------------------------------|
|-8-8-8-8-8-8--8-8-3--3-----3---3-----3--3-3-3-|
|-8-8-8-8-8-8--8-8-3--3-----3---3-----3--3-3-3-|
|-8-8-8-8-8-8--8-8-3--3-----3---3-----3--3-3-3-|
|
|-------------/6-5---(5)b6-(5)-(5)b6-(5)-3---3-|
|-6----------------------------------------6---|
|----------------------------------------------|
|----------------------------------------------|
|----------------------------------------------|
|----------------------------------------------|


  G5
|---------------------------------------------|
|---------------------------------------------|
|---------------------------------------------|
|--5--5-5-5-5-5-5-5--5--5--5---5--5-5---5---5-|
|--5--5-5-5-5-5-5-5--5--5--5---5--5-5---5---5-|
|--5--5-5-5-5-5-5-5--5--5--5---5--5-5---5---5-|
|
|-(3)---------------(3)---(3)\---/3---5---6---|
|---------------------------------------------|
|---------------------------------------------|
|---------------------------------------------|
|---------------------------------------------|
|---------------------------------------------|


  Eb5
|-------------------------------------|
|-------------------------------------|
|-------------------------------------|
|--1-1-1-1-1-1-1-1-1-1-1-1--1--1-1-1--|
|--1-1-1-1-1-1-1-1-1-1-1-1--1--1-1-1--|
|--1-1-1-1-1-1-1-1-1-1-1-1--1--1-1-1--|
|
|-/8-----------------------(8)s6-6s5--|
|-------------------------------------|
|-------------------------------------|
|-------------------------------------|
|-------------------------------------|
|-------------------------------------|


  F5
|-------------------------------------------------|
|-------------------------------------------------|
|-------------------------------------------------|
|-3--3-----3---3-----3--3-3---3--3--3-3-3-3-3-3-3-|
|-3--3-----3---3-----3--3-3---3--3--3-3-3-3-3-3-3-|
|-3--3-----3---3-----3--3-3---3--3--3-3-3-3-3-3-3-|
|
|-5-(5)b6-(5)-(5)b6-(5)---------------------------|
|-----------------------3-4b6---(4)---------------|
|-------------------------------------------------|
|-------------------------------------------------|
|-------------------------------------------------|
|-------------------------------------------------|


  D5                    Eb5         F5
|-----------------------------------------||
|-----------------------------------------||
|-----------------------------------------||
|-0---0-0-0-0-0-0-0-0---1-1-1-1-----3-3-3-||
|-0---0-0-0-0-0-0-0-0---1-1-1-1-----3-3-3-||
|-0---0-0-0-0-0-0-0-0---1-1-1-1-----3-3-3-||
|
|-----------------------------------------||
|-4b7---------------6b8-------8b10========||
|-----------------------------------------||
|-----------------------------------------||
|-----------------------------------------||
|-----------------------------------------||


 Pre-Verse
  Slower Q=65
  G5
  Gtrs I, II   Gtr I
|----------------------10-13-17-13----------|
|------------------6-8-------------15----15-|
|--------------0-3--------------------15----|
|-5-------(5)\------------------------------|
|-5-------(5)\------------------------------|
|-5-------(5)\------------------------------|
|
| Gtr III
|          ~~~~~~~~~~~~~~~~~~~~~~~~~~~~~~~~~~
|-------------------------------------------|
|-8r======(8)-------------------------------|
|-------------------------------------------|
|-------------------------------------------|
|-------------------------------------------|
|-------------------------------------------|
|
| Gtr VI
|-6--------5---------3-----------5----------|
|---3----------3--------3-----------3-----3s|
|-----3----------3---------3-----------3----|
|-------5----------5----------5-----------5-|
|-------------------------------------------|
|-------------------------------------------|


  N.C.
   ~~~~~~~~~~~~~~
|--------------------18----17----15----13----15----|
|----------------/15----15----13----13----13----13-|
|-14--------(14)-----------------------------------|
|--------------------------------------------------|
|--------------------------------------------------|
|--------------------------------------------------|
|
|  >
|~~~~~
|--------------------------------------------------|
|-(8)----------------------------------------------|
|--------------------------------------------------|
|--------------------------------------------------|
|--------------------------------------------------|
|--------------------------------------------------|
|
|--8----------5-------------------------5----------|
|--6--6------------6--------8--------8-----8-------|
|-------5-------------5--------5--------------5----|
|---------7--------------7--------7--------------7-|
|--------------------------------------------------|
|--------------------------------------------------|


  N.C.
  Gtr I
   ~~~~~~~~~~~~~
|-------------------13----15----18----17----15----|
|-------------------------------------------------|
|-15-------(15)-/15----15----15----15----15----15-|
|-------------------------------------------------|
|-------------------------------------------------|
|-------------------------------------------------|
|
| Gtr VI
|--6---------5-------------3-----------5----------|
|----4------------4-----------4-------------------|
|------3-------------3-----------3-----------0----|
|--------5--------------5-----------5-----5-----5-|
|-------------------------------------------------|
|-------------------------------------------------|


                                                    Gmadd2
   ~~~~~~~~~~~~~                                     ~~
|-14-------(14)-----14----11----------------------|-----------------||
|---------------/10----10----10-11----10----------|-----------------||
|----------------------------------11-------11----|-----------------||
|----------------------------------------12-------|-----------------||
|----------------------------------------------12-|-13-------(13)\--||
|-------------------------------------------------|-----------------||
|
|--5---------2-------------3-----------8----------|-^6--------------||
|----3------------3-----------3-----------7-------|-^3--------------||
|------2-------------2-----------2-----------5----|-^3--------------||
|--------4--------------4-----------4-----------7-|-^5--------------||
|-------------------------------------------------|-----------------||
|-------------------------------------------------|-----------------||


   Verse
    $
    N.C.
    Gtr VI
||--6-------5-------3-------5-------|-8-------5---------------5-------|
||o---3-------3-------3-------3---3s|=6-6-------6-----8-----8---8-----|
||------3-------3-------3-------3---|-----5-------5-----5---------5---|
||--------5-------5-------5-------5-|-------7-------7-----7---------7-|
||o---------------------------------|---------------------------------|
||----------------------------------|---------------------------------|


                                                           To Coda
  N.C.
|-6-------5-------3-------5-------|-5-------2-------3-------8--------||
|---4-------4-------4-------------|---3-------3-------3-------7-----o||
|-----3-------3-------3-------0---|-----2-------2-------2-------5----||
|-------5-------5-------5---5---5-|-------4-------4-------4-------7--||
|---------------------------------|---------------------------------o||
|---------------------------------|----------------------------------||


 Chorus
  G5                        Eb5
  Gtrs I, II
|-------------------------|-------------------------|
|-------------------------|-------------------------|
|-------------------------|-------------------------|
|-5-5-5-5-5-5-5-5-5-5-5-5-|-1-1-1-1-1-1-1-1-1-1-1-1-|
|-5-5-5-5-5-5-5-5-5-5-5-5-|-1-1-1-1-1-1-1-1-1-1-1-1-|
|-5-5-5-5-5-5-5-5-5-5-5-5-|-1-1-1-1-1-1-1-1-1-1-1-1-|


                     D.S. al Coda
  Bb5                       F5   Gb5
|-------------------------|-----------||
|-------------------------|-----------||
|-------------------------|-----------||
|-8-8-8-8-8-8-8-8-8-8-8-8-|-3----4----||
|-8-8-8-8-8-8-8-8-8-8-8-8-|-3----4----||
|-8-8-8-8-8-8-8-8-8-8-8-8-|-3----4----||


   Chorus
    &
    G5                        Eb5
||--------------------------|-------------------------|
||o-------------------------|-------------------------|
||--------------------------|-------------------------|
||--5-5-5-5-5-5-5-5-5-5-5-5-|-1-1-1-1-1-1-1-1-1-1-1-1-|
||o-5-5-5-5-5-5-5-5-5-5-5-5-|-1-1-1-1-1-1-1-1-1-1-1-1-|
||--5-5-5-5-5-5-5-5-5-5-5-5-|-1-1-1-1-1-1-1-1-1-1-1-1-|


  Bb5                       F5          Gb5
|-------------------------|--------------------------||
|-------------------------|-------------------------o||
|-------------------------|--------------------------||
|-8-8-8-8-8-8-8-8-8-8-8-8-|-3-3-3-3-3-3-4-4-4-4-4-4--||
|-8-8-8-8-8-8-8-8-8-8-8-8-|-3-3-3-3-3-3-4-4-4-4-4-4-o||
|-8-8-8-8-8-8-8-8-8-8-8-8-|-3-3-3-3-3-3-4-4-4-4-4-4--||


 Guitar Solo
  G5
  Gtrs I, II
|--------------------------------------------------------------|
|--------------------------------------------------------------|
|--------------------------------------------------------------|
|--5-----5-5-5---5-------5-----5----5-5-5-5-5-5-5----5-------5-|
|--5-----5-5-5---5-------5-----5----5-5-5-5-5-5-5----5-------5-|
|--5-----5-5-5---5-------5-----5----5-5-5-5-5-5-5----5-------5-|
|
| Gtr III
|-13b15========(13)r(13)p==10-13b15---------------15---15b17---|
|--------------------------------------------------------------|
|--------------------------------------------------------------|
|--------------------------------------------------------------|
|--------------------------------------------------------------|
|--------------------------------------------------------------|


  Eb5
|---------------------------------------------------------|
|---------------------------------------------------------|
|---------------------------------------------------------|
|--1-----1-1-1---1-------1-----1-1-1-1-1-1-1-1---1--1-----|
|--1-----1-1-1---1-------1-----1-1-1-1-1-1-1-1---1--1-----|
|--1-----1-1-1---1-------1-----1-1-1-1-1-1-1-1---1--1-----|
|
|                              ~~
|-17b18========(17)r(17)------15---------------(15)-------|
|--------------------------15-------------------------15--|
|---------------------------------------------------------|
|---------------------------------------------------------|
|---------------------------------------------------------|
|---------------------------------------------------------|


  F5
|----------------------------------------------------------|
|----------------------------------------------------------|
|----------------------------------------------------------|
|--3---3-------3----3-------3---3---3-3---3--3-3-3-3-3-3-3-|
|--3---3-------3----3-------3---3---3-3---3--3-3-3-3-3-3-3-|
|--3---3-------3----3-------3---3---3-3---3--3-3-3-3-3-3-3-|
|
|-17-(17)b18-(17)-(17)b18-(17)-----------------------------|
|------------------------------15-/18---(18)---------------|
|----------------------------------------------------------|
|----------------------------------------------------------|
|----------------------------------------------------------|
|----------------------------------------------------------|


  D5
|------------------------------------------------------|
|------------------------------------------------------|
|------------------------------------------------------|
|--0-----0-0-0--0---0-----0-0---0--0-0---0--0--0--0--0-|
|--0-----0-0-0--0---0-----0-0---0--0-0---0--0--0--0--0-|
|--0-----0-0-0--0---0-----0-0---0--0-0---0--0--0--0--0-|
|
|------------------------------------------17----17h18-|
|-16b19========16r-15-14-15---(15)-----/15----15-------|
|------------------------------------------------------|
|------------------------------------------------------|
|------------------------------------------------------|
|------------------------------------------------------|


  Eb5
|-------------------------------------------------|
|-------------------------------------------------|
|-------------------------------------------------|
|--1-1-1-1-1-1-1-1---1--1---1---1---1-1----1----1-|
|--1-1-1-1-1-1-1-1---1--1---1---1---1-1----1----1-|
|--1-1-1-1-1-1-1-1---1--1---1---1---1-1----1----1-|
|
|  ~~~~~~~~~~~~~~~~~~~~~
|-15---------------(15)---(15)\---/15---17---18---|
|-------------------------------------------------|
|-------------------------------------------------|
|-------------------------------------------------|
|-------------------------------------------------|
|-------------------------------------------------|


  Bb5                                F5
|-------------------------------------------------------------------|
|-------------------------------------------------------------------|
|-------------------------------------------------------------------|
|--8-----8---8----8---8--8--8--8-------3----3---3--3---3---3--3--3--|
|--8-----8---8----8---8--8--8--8-------3----3---3--3---3---3--3--3--|
|--8-----8---8----8---8--8--8--8-------3----3---3--3---3---3--3--3--|
|
|-20b22====(20)r(20)-18-20-15-15b17==(15)r(15)-13---------13----15--|
|-------------------------------------------------15-(15)----15-----|
|-------------------------------------------------------------------|
|-------------------------------------------------------------------|
|-------------------------------------------------------------------|
|-------------------------------------------------------------------|


  G5
|-----------------------------------------------------|
|-----------------------------------------------------|
|-----------------------------------------------------|
|---5--5-5-5---5--5---5--5-----5--5--5--5--5--5--5--5-|
|---5--5-5-5---5--5---5--5-----5--5--5--5--5--5--5--5-|
|---5--5-5-5---5--5---5--5-----5--5--5--5--5--5--5--5-|
|
|   ~~~~~~~~~~~~~~
|-(15)-------(15)---(15)------18-17----18-17----18----|
|--------------------------15-------15-------15----15-|
|-----------------------------------------------------|
|-----------------------------------------------------|
|-----------------------------------------------------|
|-----------------------------------------------------|


  Eb5
|------------------------------------------------------------|
|------------------------------------------------------------|
|------------------------------------------------------------|
|--1-----1-1-1---1--1---1-------1-----1--1--1--1--1--1--1--1-|
|--1-----1-1-1---1--1---1-------1-----1--1--1--1--1--1--1--1-|
|--1-----1-1-1---1--1---1-------1-----1--1--1--1--1--1--1--1-|
|
|  ~~~~~~~~~~~~~~~~~
|------------------------------------18-17----18-17----18----|
|-18b20========(18)---(18)r(18)---15-------15-------15----15-|
|------------------------------------------------------------|
|------------------------------------------------------------|
|------------------------------------------------------------|
|------------------------------------------------------------|


  F5
|------------------------------------------------------------|
|------------------------------------------------------------|
|------------------------------------------------------------|
|--3-----3-3-3---3--3---3-------3-----3--3--3--3--3--3--3--3-|
|--3-----3-3-3---3--3---3-------3-----3--3--3--3--3--3--3--3-|
|--3-----3-3-3---3--3---3-------3-----3--3--3--3--3--3--3--3-|
|
|  ~~~~~~~~~~~~~~~~~
|------------------------------------18-17-------------------|
|-16b18========(16)---(16)r(16)---15-------15-18-15----------|
|---------------------------------------------------15-------|
|------------------------------------------------------19-17-|
|------------------------------------------------------------|
|------------------------------------------------------------|


  D5                                 Eb5                 F5
|--------------------------------------------------------------------------||
|--------------------------------------------------------------------------||
|--------------------------------------------------------------------------||
|--0-0-0-0--0---0----0--------0---0---1----1--------1--1---3---3--3--------||
|--0-0-0-0--0---0----0--------0---0---1----1--------1--1---3---3--3--------||
|--0-0-0-0--0---0----0--------0---0---1----1--------1--1---3---3--3--------||
|
|  ~~
|--------------------------------------------------------------------------||
|------------------------------------18-------18--(18)---------------------||
|----------14-----15---17b19====(17)----17---(17)-(17)---(17)r17-15----15--||
|-16----------------------------------------------------------------17-----||
|--------0----0------0-----------------------------------------------------||
|--------------------------------------------------------------------------||


 Chorus
  G5                                    F5
|-------------------------------------|---------------------------------|
|-------------------------------------|---------------------------------|
|-------------------------------------|---------------------------------|
|--5----5-5-5-5-5-5-5-5-5-5-5-5-5-5-5-|-3-3-3-3-3-3-3-3-3-3-3-3-3-3-3-3-|
|--5----5-5-5-5-5-5-5-5-5-5-5-5-5-5-5-|-3-3-3-3-3-3-3-3-3-3-3-3-3-3-3-3-|
|--5----5-5-5-5-5-5-5-5-5-5-5-5-5-5-5-|-3-3-3-3-3-3-3-3-3-3-3-3-3-3-3-3-|
|
|  >
|-------------------------------------|---------------------------------|
|-18b20-------------------------------|---------------------------------|
|-------------------------------------|---------------------------------|
|-------------------------------------|---------------------------------|
|-------------------------------------|---------------------------------|
|-------------------------------------|---------------------------------|


  Eb5                               D5                Eb5     F5
  Gtrs I, II
|---------------------------------|---------------------------------|
|---------------------------------|---------------------------------|
|---------------------------------|---------------------------------|
|-1-1-1-1-1-1-1-1-1-1-1-1-1-1-1-1-|-0-0-0-0-0-0-0-0-0-1-1-1-1-3-3-3-|
|-1-1-1-1-1-1-1-1-1-1-1-1-1-1-1-1-|-0-0-0-0-0-0-0-0-0-1-1-1-1-3-3-3-|
|-1-1-1-1-1-1-1-1-1-1-1-1-1-1-1-1-|-0-0-0-0-0-0-0-0-0-1-1-1-1-3-3-3-|


  G5                                F5
|---------------------------------|---------------------------------|
|---------------------------------|---------------------------------|
|---------------------------------|---------------------------------|
|-5-5-5-5-5-5-5-5-5-5-5-5-5-5-5-5-|-3-3-3-3-3-3-3-3-3-3-3-3-3-3-3-3-|
|-5-5-5-5-5-5-5-5-5-5-5-5-5-5-5-5-|-3-3-3-3-3-3-3-3-3-3-3-3-3-3-3-3-|
|-5-5-5-5-5-5-5-5-5-5-5-5-5-5-5-5-|-3-3-3-3-3-3-3-3-3-3-3-3-3-3-3-3-|


  Eb5                               D5                Eb5     F5
|---------------------------------|---------------------------------||
|---------------------------------|---------------------------------||
|---------------------------------|---------------------------------||
|-1-1-1-1-1-1-1-1-1-1-1-1-1-1-1-1-|-0-0-0-0-0-0-0-0-0-1-1-1-1-3-3-3-||
|-1-1-1-1-1-1-1-1-1-1-1-1-1-1-1-1-|-0-0-0-0-0-0-0-0-0-1-1-1-1-3-3-3-||
|-1-1-1-1-1-1-1-1-1-1-1-1-1-1-1-1-|-0-0-0-0-0-0-0-0-0-1-1-1-1-3-3-3-||


 Guitar Solo
  G5
  Gtrs I, II
|-------------------------------------|
|-------------------------------------|
|-------------------------------------|
|-5-5-5-5-5-5-5-5-5-5-5-5-5-5---5---5-|
|-5-5-5-5-5-5-5-5-5-5-5-5-5-5---5---5-|
|-5-5-5-5-5-5-5-5-5-5-5-5-5-5---5---5-|
|
| Gtr III
| ~
|-----------------------------5---6---|
|-8-----------------------8-----------|
|-------------------------------------|
|-------------------------------------|
|-------------------------------------|
|-------------------------------------|


  Eb5
|---------------------------------------------|
|---------------------------------------------|
|---------------------------------------------|
|-1---1-1--------1---1--1-1-1-1-1-1-1-1-1-1-1-|
|-1---1-1--------1---1--1-1-1-1-1-1-1-1-1-1-1-|
|-1---1-1--------1---1--1-1-1-1-1-1-1-1-1-1-1-|
|
|                    ~~~
|-6b8---6-(6)b8r(6)-(6)-----------------------|
|---------------------------------------------|
|---------------------------------------------|
|---------------------------------------------|
|---------------------------------------------|
|---------------------------------------------|


  F5
|----------------------------------|
|----------------------------------|
|----------------------------------|
|--3-3-3-3-3-3-3-3-3-3-3-3-3-3-3-3-|
|--3-3-3-3-3-3-3-3-3-3-3-3-3-3-3-3-|
|--3-3-3-3-3-3-3-3-3-3-3-3-3-3-3-3-|
|
|          ~
|-/6-5-----------------------------|
|------6---------------------------|
|--------5-------------------------|
|----------7-----------------------|
|----------------------------------|
|----------------------------------|


  D5
|--------------------------------------------|
|--------------------------------------------|
|--------------------------------------------|
|-0---0-0-0-0----0-0-0-0----0-0-0-0----0-0-0-|
|-0---0-0-0-0----0-0-0-0----0-0-0-0----0-0-0-|
|-0---0-0-0-0----0-0-0-0----0-0-0-0----0-0-0-|
|
|----------------------8b10------------------|
|-4b7-------8b10------------------8b10-------|
|--------------------------------------------|
|--------------------------------------------|
|--------------------------------------------|
|--------------------------------------------|


  Eb5
|-------------------------------------------|
|-------------------------------------------|
|-------------------------------------------|
|-1---1-1-1---1-1-1-1-1-1-1--1-1-1---1----1-|
|-1---1-1-1---1-1-1-1-1-1-1--1-1-1---1----1-|
|-1---1-1-1---1-1-1-1-1-1-1--1-1-1---1----1-|
|
|             ~
|-6b8-----6p5-6----------------6---8---10---|
|---------------------------/6--------------|
|-------------------------------------------|
|-------------------------------------------|
|-------------------------------------------|
|-------------------------------------------|


  Bb5                    F5
|------------------------------------------------|
|------------------------------------------------|
|------------------------------------------------|
|--8-8-8-8---8---8--8--8---3--3-3-3---3--3--3--3-|
|--8-8-8-8---8---8--8--8---3--3-3-3---3--3--3--3-|
|--8-8-8-8---8---8--8--8---3--3-3-3---3--3--3--3-|
|
|  ~~                      ~~~~
|-10-------(10)\---15-13-(13)-------/18-17----17-|
|------------------------------------------15----|
|------------------------------------------------|
|------------------------------------------------|
|------------------------------------------------|
|------------------------------------------------|


  G5
|-------------------------------------------------|
|-------------------------------------------------|
|-------------------------------------------------|
|---5-----5-5-5-5-5-5-5-5-5-5-5--5-5---5-------5--|
|---5-----5-5-5-5-5-5-5-5-5-5-5--5-5---5-------5--|
|---5-----5-5-5-5-5-5-5-5-5-5-5--5-5---5-------5--|
|
|-(17)b18-----------------------17---(17)b18-(17)-|
|-------------------------------------------------|
|-------------------------------------------------|
|-------------------------------------------------|
|-------------------------------------------------|
|-------------------------------------------------|


  Eb5
|----------------------------------|
|----------------------------------|
|----------------------------------|
|--1-1-1-1-1-1-1-1-1-1-1-1-1-1-1-1-|
|--1-1-1-1-1-1-1-1-1-1-1-1-1-1-1-1-|
|--1-1-1-1-1-1-1-1-1-1-1-1-1-1-1-1-|
|
|  ~~
|-20-------------------------------|
|----------------------------------|
|----------------------------------|
|----------------------------------|
|----------------------------------|
|----------------------------------|


  F5
|--------------------------------------|
|--------------------------------------|
|--------------------------------------|
|--3--3--3--3--3-3-3-3-3-3-3-3-3-3-3-3-|
|--3--3--3--3--3-3-3-3-3-3-3-3-3-3-3-3-|
|--3--3--3--3--3-3-3-3-3-3-3-3-3-3-3-3-|
|
|              ~~
|-18-17--------------------------------|
|-------18-----------------------------|
|----------17--------------------------|
|-------------19-----------------------|
|--------------------------------------|
|--------------------------------------|


  D5                                     Eb5             F5
|---------------------------------------------------------------------||
|---------------------------------------------------------------------||
|---------------------------------------------------------------------||
|--0---0-------0----0-------0--0-0-0---0-1----1----1---1-3----3----3--||
|--0---0-------0----0-------0--0-0-0---0-1----1----1---1-3----3----3--||
|--0---0-------0----0-------0--0-0-0---0-1----1----1---1-3----3----3--||
|
|---------------------------------------------------------------------||
|----------------------------------------------------/18---16---15----||
|------------------------------------/17---15---14--------------------||
|-16-(16)b17-(16)-(16)b17-(16)----------------------------------------||
|---------------------------------------------------------------------||
|---------------------------------------------------------------------||


   Interlude
    G5                                  F5
    Gtr I
||------------------------------------|-----------------------------------|
||o-----------------------------------|-----------------------------------|
||------------------------------------|-----------------------------------|
||--5-5-5-5-5-5-5-5-5--5-5-5--5-5-5-5-|-3-3-3-3-3-3-3-3-3--3-3-3--3-3-3-3-|
||o-5-5-5-5-5-5-5-5-5--5-5-5--5-5-5-5-|-3-3-3-3-3-3-3-3-3--3-3-3--3-3-3-3-|
||--5-5-5-5-5-5-5-5-5--5-5-5--5-5-5-5-|-3-3-3-3-3-3-3-3-3--3-3-3--3-3-3-3-|
|
|   Gtr II
||------------------------------------|-----------------------------------|
||o-----------------------------------|-----------------------------------|
||------------------------------------|-----------------------------------|
||--7-8-7-8-5---------/8-7-8-10-8-7-8-|-7-8-7-8-----------/8-7-8-10-8-7-8-|
||o-----------------------------------|---------8-------------------------|
||------------------------------------|-----------------------------------|
|
|   Gtr III
||------------------------------------|-----------------------------------|
||o-----------------------------------|-----------------------------------|
||--5-7-5-7-----------/7-5-7--8-7-5-7-|-5-7-5-7-----------/7-5-7--8-7-5-7-|
||----------8-------------------------|---------7-------------------------|
||o-----------------------------------|-----------------------------------|
||------------------------------------|-----------------------------------|


  Eb5                                 D5                Eb5       F5
|-----------------------------------|-------------------------------------||
|-----------------------------------|------------------------------------o||
|-----------------------------------|-------------------------------------||
|-1-1-1-1-1-1-1-1-1--1-1-1--1-1-1-1-|-0-0-0-0-0-0-0-0-0--1-1-1--1--3-3-3--||
|-1-1-1-1-1-1-1-1-1--1-1-1--1-1-1-1-|-0-0-0-0-0-0-0-0-0--1-1-1--1--3-3-3-o||
|-1-1-1-1-1-1-1-1-1--1-1-1--1-1-1-1-|-0-0-0-0-0-0-0-0-0--1-1-1--1--3-3-3--||
|
|-----------------------------------|-------------------------------------||
|-----------------------------------|------------------------------------o||
|-----------------------------------|-------------------------------------||
|-7-8-7-8-5---------/8-7-8-10-8-7-8-|-7-8-7-8-----------------------------||
|-----------------------------------|---------9-------9s10-----10s12-----o||
|-----------------------------------|-------------------------------------||
|
|-----------------------------------|-------------------------------------||
|-----------------------------------|------------------------------------o||
|-5-7-5-7-----------/7-5-7--8-7-5-7-|-5-7-5-7-----------------------------||
|---------8-------------------------|---------7-------7s=8------8s10------||
|-----------------------------------|------------------------------------o||
|-----------------------------------|-------------------------------------||


 Guitar Break
  G5
 6/8
  Gtr I
   |                              |
   /                              /

  Gtrs II, III
|-----------------------------|--------------------------------|
|-----------------------------|--------------------------------|
|-----------------------------|--------------------------------|
|-10-----------12-------------|-(12)---------------------------|
|-12-----------13-------------|-(13)---------------------------|
|-----------------------------|--------------------------------|
|
| Gtr IV
|-----------------------------|--------------------------------|
|-----------------------------|--------------------------------|
|-----------------------------|--------------------------------|
|------5-----5-------5------5-|--------5------5-------5------5-|
|----5-----5------5-------5---|------5------5------5-------5---|
|--5-----5------5------5------|---5-------5------5------5------|
|
| Gtr V
|-----------------------------|--11------10--------------------|
|-------------------10---11---|----------------------10---11---|
|--------------12-------------|-----------------12-------------|
|-----------------------------|--------------------------------|
|-----------------------------|--------------------------------|
|-----------------------------|--------------------------------|


    |                                |
    /                                /

    >
|--------------------------------|---------------------------------|
|--------------------------------|---------------------------------|
|--------------------------------|---------------------------------|
|-(12)---------------------------|-(12)----------------------------|
|-(13)---------------------------|-(13)----------------------------|
|--------------------------------|---------------------------------|
|
|--------------------------------|---------------------------------|
|--------------------------------|---------------------------------|
|--------------------------------|---------------------------------|
|--------5------5-------5------5-|--------5------5-------5------5--|
|------5------5------5-------5---|------5------5------5-------5----|
|---5-------5------5------5------|---5-------5------5------5-------|
|
|--11------10--------------------|--11------10---------------------|
|----------------------10---11---|----------------------10---11----|
|-----------------12-------------|-----------------12--------------|
|--------------------------------|---------------------------------|
|--------------------------------|---------------------------------|
|--------------------------------|---------------------------------|


  (G5)                           (D5)
  Gtr IV
|------------------------------|-----------------------------|
|------------------------------|-----------------------------|
|------------------------------|-----------------------------|
|------5------5-------5------5-|------0-----0-------0------0-|
|----5------5------5-------5---|----0-----0------0-------0---|
|--5------5------5------5------|--0-----0------0------0------|
|
| Gtr V
|-11-----10--------------------|-----------------------------|
|--------------------10--------|------------------------10---|
|---------------12--------12---|-11-----------11---12--------|
|------------------------------|-----------------------------|
|------------------------------|-----------------------------|
|------------------------------|-----------------------------|


  (Eb)
|-------------------------------|
|-------------------------------|
|-------------------------------|
|------1-------1-------1------1-|
|----1------1-------1-------1---|
|--1------1-------1------1------|
|
|-------------------------------|
|-13-----11---10-11---10--------|
|--------------------------12---|
|-------------------------------|
|-------------------------------|
|-------------------------------|


  (G5)
|------------------------------|
|------------------------------|
|------------------------------|
|------5------5-------5------5-|
|----5------5------5-------5---|
|--5------5------5------5------|
|
|-11-----10--------------------|
|--------------------10---11---|
|---------------12-------------|
|------------------------------|
|------------------------------|
|------------------------------|


                                 (D5)
|------------------------------|-----------------------------|
|------------------------------|-----------------------------|
|------------------------------|-----------------------------|
|------5------5-------5------5-|------0-----0-------0------0-|
|----5------5------5-------5---|----0-----0------0-------0---|
|--5------5------5------5------|--0-----0------0------0------|
|
|-11-----10--------------------|-----------------------------|
|--------------------10--------|------------------------10---|
|---------------12--------12---|-11-----------11---12--------|
|------------------------------|-----------------------------|
|------------------------------|-----------------------------|
|------------------------------|-----------------------------|


  (Eb)
|-------------------------------|-------------------------------|
|-------------------------------|-------------------------------|
|-------------------------------|-------------------------------|
|------1-------1-------1------1-|------1-------1-------1------1-|
|----1------1-------1-------1---|----1------1-------1-------1---|
|--1------1-------1------1------|--1------1-------1------1------|
|
|-------------------------------|-------------------------------|
|-13-----11---10-11---10--------|-13-----11---10-11---10--------|
|--------------------------12---|--------------------------12---|
|-------------------------------|-------------------------------|
|-------------------------------|-------------------------------|
|-------------------------------|-------------------------------|


  (G5)                         (F5)
|----------------------------|-----------------------------|
|----------------------------|-----------------------------|
|----------------------------|-----------------------------|
|------5-----5------5------5-|------3-----3-------3------3-|
|----5-----5------5------5---|----3-----3------3-------3---|
|--5-----5------5------5-----|--3-----3------3------3------|
|
|----------------------------|-----------------------------|
|-11-----------10-----11-----|-13-----------11---10---13---|
|-12-----------12-----12-----|-12-----------12---12---12---|
|----------------------------|-----------------------------|
|----------------------------|-----------------------------|
|----------------------------|-----------------------------|


  (Eb)                          (D5)
|-----------------------------|--------------------------------|
|-----------------------------|--------------------------------|
|-----------------------------|--------------------------------|
|------1-----1-------1------1-|------0-----0-------0------0----|
|----1-----1------1-------1---|----0-----0------0-------0------|
|--1-----1------1------1------|--0-----0------0------0---------|
|
|-----------------------------|--------------------------------|
|-11-----------11---10---11---|-13-----------10---11---13------|
|-12-----------12-------------|-12-----------12---12---12------|
|-----------------------------|--------------------------------|
|-----------------------------|--------------------------------|
|-----------------------------|--------------------------------|


  (G5)                         (F5)
|----------------------------|-----------------------------|
|----------------------------|-----------------------------|
|----------------------------|-----------------------------|
|------5-----5------5------5-|------3-----3-------3------3-|
|----5-----5------5------5---|----3-----3------3-------3---|
|--5-----5------5------5-----|--3-----3------3------3------|
|
|-10-------------------------|-----------------------------|
|--------------10-----11-----|-13-----------11---10---13---|
|-12-----------12-----12-----|-12-----------12---12---12---|
|----------------------------|-----------------------------|
|----------------------------|-----------------------------|
|----------------------------|-----------------------------|


  (Eb)                          (D5)
|-----------------------------|--------------------------------|
|-----------------------------|--------------------------------|
|-----------------------------|--------------------------------|
|------1-----1-------1------1-|------0-----0-------0------0----|
|----1-----1------1-------1---|----0-----0------0-------0------|
|--1-----1------1------1------|--0-----0------0------0---------|
|
|-----------------------------|--------------------------------|
|-11-----------11---10---11---|-13-----------10---11---13------|
|-12-----------12---12---12---|-12-----------12---12---12------|
|-----------------------------|--------------------------------|
|-----------------------------|--------------------------------|
|-----------------------------|--------------------------------|


    (G5)                         (F5)
    Gtr IV
||-----------------------------|-----------------------------|
||o----------------------------|-----------------------------|
||-----------------------------|-----------------------------|
||-------5-----5------5------5-|------3-----3-------3------3-|
||o----5-----5------5------5---|----3-----3------3-------3---|
||---5-----5------5------5-----|--3-----3------3------3------|
|
|   Gtr V
||--10-------------------------|-----------------------------|
||o--------------10-----11-----|-13-----------11---10---13---|
||--12-----------12-----12-----|-12-----------12---12---12---|
||-----------------------------|-----------------------------|
||o----------------------------|-----------------------------|
||-----------------------------|-----------------------------|
|
|   Gtr I
|    PM-------------------------------------------------------
||-----------------------------|-----------------------------|
||o----------------------------|-----------------------------|
||-----------------------------|-----------------------------|
||-----------------------------|-----------------------------|
||o--5-5-5-5-5-5--5-5-5--5-5-5-|--5-5-5-5-5-5--5-5--5-5--5-5-|
||---5-5-5-5-5-5--5-5-5--5-5-5-|--3-3-3-3-3-3--3-3--3-3--3-3-|


  (Eb)                          (D5)
|-----------------------------|--------------------------------||
|-----------------------------|-------------------------------o||
|-----------------------------|--------------------------------||
|------1-----1-------1------1-|------0-----0-------0------0----||
|----1-----1------1-------1---|----0-----0------0-------0-----o||
|--1-----1------1------1------|--0-----0------0------0---------||
|
|-----------------------------|--------------------------------||
|-11-----------11---10---11---|-13-----------10---11---13-----o||
|-12-----------12---12---12---|-12-----------12---12---12------||
|-----------------------------|--------------------------------||
|-----------------------------|-------------------------------o||
|-----------------------------|--------------------------------||
|
|---------------------------------------------------------|
|-----------------------------|--------------------------------||
|-----------------------------|-------------------------------o||
|-----------------------------|--------------------------------||
|-----------------------------|--------------------------------||
|--5-5-5-5-5-5--5-5--5-5--5-5-|--5-5-5-5-5-5--5-5--5-5--5-5---o||
|--1-1-1-1-1-1--1-1--1-1--1-1-|--0-0-0-0-0-0--0-0--0-0--0-0----||


   Breakdown
    G5            F5              Eb5           F5
   4/4
    Gtrs I, II
||------------------------------|--------------------------------||
||o-----------------------------|-------------------------------o||
||------------------------------|--------------------------------||
||---5-5-5--5-5-5--3-3-3--3-3-3-|--1-1-1--1-1-1--3-3-3--3-3-3-3--||
||o--5-5-5--5-5-5--3-3-3--3-3-3-|--1-1-1--1-1-1--3-3-3--3-3-3-3-o||
||---5-5-5--5-5-5--3-3-3--3-3-3-|--1-1-1--1-1-1--3-3-3--3-3-3-3--||
|
|   Gtr V
||--10--------------------------|--------------------------------||
||o---------------10-----11-----|-13------------10-----11-------o||
||---------12-------------------|--------12----------------------||
||------------------------------|--------------------------------||
||o-----------------------------|-------------------------------o||
||------------------------------|--------------------------------||


  G5           F5            Eb5         F5
|--------------------------|---------------------------|
|--------------------------|---------------------------|
|--------------------------|---------------------------|
|--5-5-5-5-5-5-3-3-3-3-3-3-|-1-1-1-1-1-1-3-3-3-3-3-3-3-|
|--5-5-5-5-5-5-3-3-3-3-3-3-|-1-1-1-1-1-1-3-3-3-3-3-3-3-|
|--5-5-5-5-5-5-3-3-3-3-3-3-|-1-1-1-1-1-1-3-3-3-3-3-3-3-|
|
|-10-----------------------|---------------------------|
|--------------------------|---------------------------|
|--------------------------|---------------------------|
|--------------------------|---------------------------|
|--------------------------|---------------------------|
|--------------------------|---------------------------|


    G5          F5            Eb5         F5
    Gtrs I, II
                                                         3x
||--------------------------|----------------------------||
||o-------------------------|---------------------------o||
||--------------------------|----------------------------||
||--5-5-5-5-5-5-3-3-3-3-3-3-|-1-1-1-1-1-1-3-3-3-3-3-3-3--||
||o-5-5-5-5-5-5-3-3-3-3-3-3-|-1-1-1-1-1-1-3-3-3-3-3-3-3-o||
||--5-5-5-5-5-5-3-3-3-3-3-3-|-1-1-1-1-1-1-3-3-3-3-3-3-3--||


   Outro
    G5                                Bb5
    Gtrs I, II
||----------------------------------|--------------------------------------|
||o---------------------------------|--------------------------------------|
||----------------------------------|--------------------------------------|
||--5-5-5-5-5-5-5-5-5-5-5-5-5-5-5-5-|--8-8-8-8-8-8-8-8--8--8-8-8--8--8-8-8-|
||o-5-5-5-5-5-5-5-5-5-5-5-5-5-5-5-5-|--8-8-8-8-8-8-8-8--8--8-8-8--8--8-8-8-|
||--5-5-5-5-5-5-5-5-5-5-5-5-5-5-5-5-|--8-8-8-8-8-8-8-8--8--8-8-8--8--8-8-8-|
|
|   Gtrs IV, V
||----------------------------------|--------------------------------------|
||o-----------------6---------------|--------------6---(6)-----------4-----|
||----------7-------7-------7-------|--8-----------7---(7)-----7-(7)-5-----|
||----------8---------------8-------|-10-----------8---(8)---8-8-(8)-------|
||o---------------------------------|------------------------8-------------|
||----------------------------------|--------------------------------------|


  F5                                    Eb5
                                                                           6x
|-------------------------------------|------------------------------------||
|-------------------------------------|-----------------------------------o||
|-------------------------------------|------------------------------------||
|-3-3-3-3-3-3-3-3--3--3-3-3--3--3-3-3-|-1-1-1-1-1-1-1-1--1--1-1-1-1-1-1-1--||
|-3-3-3-3-3-3-3-3--3--3-3-3--3--3-3-3-|-1-1-1-1-1-1-1-1--1--1-1-1-1-1-1-1-o||
|-3-3-3-3-3-3-3-3--3--3-3-3--3--3-3-3-|-1-1-1-1-1-1-1-1--1--1-1-1-1-1-1-1--||
|
|                                                                          6x
|-------------------------------------|------------------------------------||
|-------------------------------------|-----------------------------------o||
|-5---------------(5)-----5-(5)-7-----|-3----------------------------------||
|-7---------------(7)---7-7-(7)-8-----|-5---------------(5)----------------||
|-----------------------8-------------|-----------------------------------o||
|-------------------------------------|------------------------------------||



Tablature Legend
----------------
 h   - hammer-on
 p   - pull-off
 b   - bend
 pb  - pre-bend
 r   - bend release (if no number after the r, then release immediately)
 /\  - slide into or out of (from/to "nowhere")
 s   - legato slide
 S   - shift slide
<n> - natural harmonic
[n]  - artificial harmonic
n(n) - tapped harmonic
 ~   - vibrato
 tr  - trill
 T   - tap
 TP  - trem. picking
 PM  - palm muting
\n/  - tremolo bar dip; n = amount to dip
 \n  - tremolo bar down
 n/  - tremolo bar up
/n\  - tremolo bar inverted dip
 =   - hold bend; also acts as connecting device for hammers/pulls
 <> - volume swell (louder/softer)
 x   - on rhythm slash represents muted slash
 o   - on rhythm slash represents single note slash
									


911Tabs.com - tabs search engine
More "I Wont See You Tonight Part 1" tabs @ 911Tabs

A Guide to Tab NotationGuitar TabsGuitar ResourcesGuitar TabsPrivacy PolicyGuitar TabsContact

Online Guitar Lessons

Avenged Sevenfold Guitar Tabs - Over 200,000 chords, guitar and bass tabs with video. Find tabs, video guitar lessons and more.