Music Guitar Tab, Tabs with MP3, ringtones, ringtone, concert tickets, guitar lessons, guitar tabs easy, guitar hero

Guitar Tabs Guitar Chords Bass Tabs
 Web Guitar Tabs
Guitar Lessons
 
Lyrics abcdefghijklmnopqrstuvwxyz # Top 100 Lyrics

Guitar Tabs
Guitar Tab






click on, click off


Tab for "Gunslinger" - Avenged Sevenfold Rating 4Print Guitar Tabs
select alternative YouTube videos below...
Tweak the search term to refine the YouTube video results:         
Share on Facebook

Learn to play this song and others via online guitar lessons @ JamPlay.com!

-------------------------------------------------------------------------------
			     "Gunslinger" solo --- Avenged Sevenfold
-------------------------------------------------------------------------------


Tabbed by: [travis]



Tuning: D A D G B E [low to high]

Key: F Major (F G A Bb C D E F)


*Nobody seems to have a correct version of this solo, so 
 I decided to tab it out. I'm pretty sure this is 100% 
 correct. Please rate and comment it.


Legend:
b = bend
h = hammer on
p = pull off
"" = feedback
/ = slide up
\ = slide down
* = pinch harmonic
1 = whole step bend
.5 = half step bend
__ = hold bend
~~ = vibrato
() = bring bent note back to normal, or note barely heard
h/ = pick once
p\ = pick once
h/p\ = pick once
\\ = wammy bar down

                                                            .5______
e|---------------------------------------------------------------------------|
B|-/15~~~~~~~/9h/15--17--18--17~~~~~~~(17)\-----17-18*-20--22b------(22)~~~~-|
G|------------------------------------------/17------------------------------|
D|---------------------------------------------------------------------------|
A|---------------------------------------------------------------------------|
D|---------------------------------------------------------------------------|

               1_____               .5_____                 1________
e|------------------------------------------------------------------------|
B|-20~~~~~~~~20b-----(20)--18~~~~~/17b-----(17)~~~~~17----15b~~~~~~~~(15)-|
G|-----------------------------------------------------17-----------------|
D|------------------------------------------------------------------------|
A|------------------------------------------------------------------------|
D|------------------------------------------------------------------------|

                                     .5__                             .5__        .5____
e|---------------------------------------------13*-------------12----12b--(12)---12b~~~~|
B|-15-17-18-17~~~~~~(17)\-----13--------------------------------------------------------|
G|-------------------------------15-14b--(14)-----14--14p\12------12----------12--------|
D|------------------------/14-----------------------------------------------------------|
A|--------------------------------------------------------------------------------------|
D|--------------------------------------------------------------------------------------|

                .5___         1___    1__                                           
e|-------17----17b---(17)---15b---(15)b--(15)\10~~~~~~~~~(10)""""""(10)p\8--10-|
B|-----------------------------------------------------------------------------|
G|-17-17----17-----------------------------------------------------------------|
D|-----------------------------------------------------------------------------|
A|-----------------------------------------------------------------------------|
D|-----------------------------------------------------------------------------|

 This is two guitars:
     1______________
     1______________  V : Right here, just push the wammy bar all the way down.
e|-10b--------------(10)\-------------------------------|
B|-10b--------------(10)\\------------------------------|
G|-----------------------\\-----------------------------|
D|------------------------\\----------------------------|
A|-------------------------\\---------------------------|
D|--------------------------\\--------------------------|
                                 

Please Rate and Comment It.
[travis]

******************
									


911Tabs.com - tabs search engine
More "Gunslinger" tabs @ 911Tabs

A Guide to Tab NotationGuitar TabsGuitar ResourcesGuitar TabsPrivacy PolicyGuitar TabsContact

Online Guitar Lessons

Avenged Sevenfold Guitar Tabs - Over 200,000 chords, guitar and bass tabs with video. Find tabs, video guitar lessons and more.