Music Guitar Tab, Tabs with MP3, ringtones, ringtone, concert tickets, guitar lessons, guitar tabs easy, guitar hero

Guitar Tabs Guitar Chords Bass Tabs
 Web Guitar Tabs
Guitar Lessons
 
Lyrics abcdefghijklmnopqrstuvwxyz # Top 100 Lyrics

Guitar Tabs
Guitar Tab






click on, click off


Tab for "Gunslinger" - Avenged Sevenfold Rating 4Print Guitar Tabs
select alternative YouTube videos below...
Tweak the search term to refine the YouTube video results:         
Share on Facebook

Learn to play this song and others via online guitar lessons @ JamPlay.com!

----------------------------------------------------------------------------
			     Gunslinger - Avenged Sevenfold
----------------------------------------------------------------------------
Tabbed by:skylinekid_321
Email:mortallord_46@hotmail.com

Tuning:drop d

i can't figure out the acoustic part yet but im pretty sure the rest that i tabbed is 
99% right...there might be a couple mistakes but its also my first tab so be easy lol
                                                +  +  +  +
e|-----------------------------------------------15-15-15-15-|
B|-----------------------------------------------15-15-15-15-|
G|-----------------------------------------------------------|
D|-0---3---5---6---10-10-10-10---0---3---0-------------------|
A|-0---3---5---6---10-10-10-10---0---3---0---0--0------------|
D|-0---3---5---6---10-10-10-10---0---3---0---0--0------------|
                                             .  .
                                                     +  +  +  +
e|---------------------------------------------------15-15-15-15-|
B|---------------------------------------------------15-15-15-15-|
G|---------------------------------------------------------------|
D|-0---3---5---6---10-10-10-10---0---3---0-----------------------|
A|-0---3---5---6---10-10-10-10---0---3---0---0-0-0-0-------------|
D|-0---3---5---6---10-10-10-10---0---3---0---0-0-0-0-------------|
                                             . . . .
VERSE (X2)
e|-----------------------------------------------------|
B|-----------------------------------------------------|
G|-----------------------------------------------------|
D|-----------------3-----------------------------------|
A|-5-3-5-3-5-3-5-3--------5-3-5-3-5-3-0-0-0-0-0-0-0-0--|
D|------------------------------------0-0-0-0-0-0-0-0--|
                                      . . . . . . . .
PRE CHORUS
e|-----------------------------------------------------|
B|-----------------------------------------------------|
G|-3--3--3-3---3-3--3-3-3-3-5--5--5-5---5-5--5-5-5-5---|
D|-3--3--3-3---3-3--3-3-3-3-5--5--5-5---5-5--5-5-5-5---|
A|-1--1--1-1---1-1--1-1-1-1-3--3--3-3---3-3--3-3-3-3---|
D|-----------------------------------------------------|


CHORUS (X2)
e|------------------------------------------------------|
B|------------------------------------------------------|
G|------------------------------------------------------|
D|-7--7-7-7-7-7--7--7-7-7-7-8--8-8-8-8-8--8--8-8-8-8----|
A|-7--7-7-7-7-7--7--7-7-7-7-8--8-8-8-8-8--8--8-8-8-8----|
D|-7--7-7-7-7-7--7--7-7-7-7-8--8-8-8-8-8--8--8-8-8-8----|

e|------------------------------------------------------|
B|------------------------------------------------------|
g|-7--7/9-9/101210-10101010-9--9/1010/1214-12-12121212--|
D|-x--x-x-x-x-x-x--x-x-x-x--x--x-x-x--x-x--x--x-x-x-x---|
A|-5--5/7-7/8-10-8-8-8-8-8--7--7/8-8//1012-10-10101010--|
D|------------------------------------------------------|

e|------------------------------------------------------|
B|------------------------------------------------------|
G|------------------------------------------------------|
D|-7--7-7-7-7-7--7--7-7-7-7-8--8-8-8-8-8--8--8-8-8-8----|
A|-7--7-7-7-7-7--7--7-7-7-7-8--8-8-8-8-8--8--8-8-8-8----|
D|-7--7-7-7-7-7--7--7-7-7-7-8--8-8-8-8-8--8--8-8-8-8----|

e|------------------------------------------------------|
B|------------------------------------------------------|
G|-9--9-9-9-9-9--9--1212121210-10101010-9/10/9-7--9--10-|
D|-x--x-x-x-x-x--x--x-x-x-x-x--x-x-x-x--x-x--x-x--x--x--|
A|-7--7-7-7-7-7--7--101010108--8-8-8-8--7/8//7-5--7--8--|
D|------------------------------------------------------|

only on second time
e|------------------------------------------------------|
B|-------------------------------------------11--13--15-|
G|------------------------------------------------------|
D|------------------------------------------------------|
A|------------------------------------------------------|
D|------------------------------------------------------|

PRE CHORUS
BRIDGE (X2)
e|---------------------------------------------------------------------------|
B|---------------------------------------------------------------------------|
G|-3--3--3-3-3--3--5--5--5-5-5--5--------------5--5--5-5-7--7--7-7-5--5--5-5-|
D|-3--3--3-3-3--3--5--5--5-5-5--5----3--3--3-3-5--5--5-5-7--7--7-7-5--5--5-5-|
A|-1--1--1-1-1--1--3--3--3-3-3--3----3--3--3-3-3--3--3-3-5--5--5-5-3--3--3-3-|
D|-----------------------------------3--3--3-3-------------------------------|

Pre-Solo
  The stars in the night…
e|--------------------------------------------------------------------------|
B|-3--3--3-3-3--3--5--5--5-5-5--5-------------------------------------------|
G|-3--3--3-3-3--3--5--5--5-5-5--5-------------------------------------------|
D|-3--3--3-3-3--3--5--5--5-5-5--5--0--0--0-0-2--2--2-2-3--3--3-3-5--5--5-5--|
A|-1--1--1-1-1--1--3--3--3-3-3--3--0--0--0-0-3--3--3-3-3--3--3-3-5--5--5-5--|
D|---------------------------------0--0--0-0-2--2--2-2-3--3--3-3-5--5--5-5--|

e|--------------------------------------------------------------------------|
B|--------------------------------------------------------------------------|
G|-3--3--3-3-3--3--5--5--5-5-5--5--7--7--7-7-9--9--9-9-10-10-101012-12-1212-|
D|-3--3--3-3-3--3--5--5--5-5-5--5--x--x--x-x-x--x--x-x-x--x--x-x-x--x--x-x--|
A|-1--1--1-1-1--1--3--3--3-3-3--3--5--5--5-5-7--7--7-7-8--8--8-8-10-10-1010-|
D|--------------------------------------------------------------------------|

Solo

e|----------12-13-12~--/12-13-15-17b18---17~-15b17---13--12-13-12---------------|
B|-/15~-/15~------------------------------------------------------13-15b17-15---|
G|------------------------------------------------------------------------------|
D|------------------------------------------------------------------------------|
A|------------------------------------------------------------------------------|
D|------------------------------------------------------------------------------|
                       +
e|-12-13-12~-----------13-----12-12b13-12-12b13------17--17b18---15b17------|
B|-----------/13-11--------------------------------15--15---------------15~-|
G|------------------14~---14-12-12------12----------------------------------|
D|--------------------------------------------------------------------------|
A|--------------------------------------------------------------------------|
E|--------------------------------------------------------------------------|

on the second line of the solo where it goes  e--12-13-12~-----------|
                                              B-----------/13--------|
just before it goes to the 13 i do a pull off e-12-13-12~-13p12------|
                                              B------------------/13-|
and its sounds pretty sweet if you understand what i mean

| /  slide up
| \  slide down
| h  hammer-on
| p  pull-off
| ~  vibrato
| +  harmonic
| x  Mute note
									


911Tabs.com - tabs search engine
More "Gunslinger" tabs @ 911Tabs

A Guide to Tab NotationGuitar TabsGuitar ResourcesGuitar TabsPrivacy PolicyGuitar TabsContact

Online Guitar Lessons

Avenged Sevenfold Guitar Tabs - Over 200,000 chords, guitar and bass tabs with video. Find tabs, video guitar lessons and more.