Music Guitar Tab, Tabs with MP3, ringtones, ringtone, concert tickets, guitar lessons, guitar tabs easy, guitar hero

Guitar Tabs Guitar Chords Bass Tabs
 Web Guitar Tabs
Guitar Lessons
 
Lyrics abcdefghijklmnopqrstuvwxyz # Top 100 Lyrics

Guitar Tabs
Guitar Tab






click on, click off


Tab for "Forgotten Faces" - Avenged Sevenfold Rating 4Print Guitar Tabs
select alternative YouTube videos below...
Tweak the search term to refine the YouTube video results:         
Share on Facebook

Learn to play this song and others via online guitar lessons @ JamPlay.com!

----------------------------------------------------------------------------
			     RoflCopter - The First Of The Fallen
----------------------------------------------------------------------------
Tabbed by: Acdcone15
Email: Acdcone15@yahoo.com

Tuning: Drop D, Half Step down

Intro

Both Guitars:
e|-----------------------------------------------------|                    
B|-----------------------------------------------------|                    
G|-----------------------------------------------------| x2                 
D|---0~-------7~-------5~---3~-------------------------|                    
A|---0~-------7~-------5~---3~-------------------------|                    
D|---0~-------7~-------5~---3~-------------------------|                    

Guitar 1:
e|---------------------------------------|                                 
B|----------------/10-10-8----8~---------|                                  
G|-/7~--5-7/9--------------10------------| x2                               
D|------------7--------------------------|                                  
A|---------------------------------------|                                  
D|---------------------------------------|                                  

Guitar 2:
e|-----------------------------------------------------|
B|-----------------------------------------------------|
G|-----------------------------------------------------| x2
D|---0~-------7~-------5~---3~-------------------------|
A|---0~-------7~-------5~---3~-------------------------|
D|---0~-------7~-------5~---3~-------------------------|

Pre-Verse
                     1st time                  2nd time
Guitar 1:          |-----------|     |-----------------------------|
e|-------------------------------------------------------------------------|
B|-------------------------------------------------------------------------|
G|-------------------------------------------------------------------------|
D|---55-------------55------33----------------10-8-7-8-5-7-5-4-------------|
A|---55-------------55------33---------------------------------------------|
D|---55-------------55------33---------------------------------------------|

e|-------------------------------------------------------------------------|
B|-------------------------------------------------------------------------|
G|-------------------------------------------------------------------------|
D|---------------------------88888-77777-55555-77777-----------------------|
A|---00000-55555-77777-88888-------------------------00000-55555-77777-----|
D|-------------------------------------------------------------------------|
                              1st time               2nd time             
                           |-----------|   |------------------------|       
e|-------------------------------------------------------------------------|
B|-------------------------------------------------------------------------|
G|-------------------------------------------------------------------------|
D|-------------------------------------------------------------------------|
A|---88888-1010101010-88888-77777-55555------10-8-7-5-8-7-5-4--------------|
D|-------------------------------------------------------------------------|

Post Pre-Verse


Both Guitars:
e|----------------------------------------------------------------|
B|----------------------------------------------------------------|
G|---7-----------------------------------7------------------------| x2
D|---7------7------5------3p1-3p1--------7------7------5------3-1-|
A|---5------7------5------3p1-3p1--------5------7------5------3-1-|
D|-----0000-7-0000-5-0000-3p1-3p1---0000---0000-7-0000-5-0000-3-1-|         
Pm     ....   ....   ....           ....   ....   ....   ....

Verse

Both Guitars:
e|-------------------------------|
B|-------------------------------|
G|-------------------------------|
D|---0-000-5-0-0-3---------------|
A|---0-000-5-0-0-3---------------|
D|---0-000-5-0-0-3--23232323230--|
Pm     ...   . .    ...........

Bridge

Guitar 1:
e|----------------------------------------------13h14h16b17--16h17p16------|
B|-------------------------------------------13-----------------------15---|
G|----------------------------------------14-------------------------------|
D|---0----3--2-3-5---3-5-7-----0----3---15---------------------------------|
A|---0----3--2-3-5---3-5-7-----0----3--------------------------------------|
D|---0----3--2-3-5---3-5-7-----0----3--------------------------------------|

Guitar 2:
e|-------------------------------------------------------------------------|
B|-------------------------------------------------------------------------|
G|-------------------------------------------------------------------------|
D|---0----3--2-3-5---3-5-7-----0----3--2-3-5-5555-5-5555-------------------|
A|---0----3--2-3-5---3-5-7-----0----3--2-3-5-5555-5-5555-------------------|
D|---0----3--2-3-5---3-5-7-----0----3--2-3-5-5555-5-5555-------------------|


Chrous

Both Guitars:
e|-------------------------------------------------------------------------|
B|-------------------------------------------------------------------------|
G|--777777777-----------------------777777777------------------------------|
D|--777777777--7--5--3--2h3p2-0-----777777777--6--5--3--2h3p2-0------------|
A|--555555555--7--5--3--2h3p2-0-----555555555--6--5--3--2h3p2-0------------|
D|-------------7--5--3--2h3p2-0----------------6--5--3--2h3p2-0------------|

e|-------------------------------------------------------------------------|
B|-------------------------------------------------------------------------|
G|--777777777-----------------------777777777------------------------------|
D|--777777777--8--5--3--2h3p2-0-----777777777--6--5--3--2h3p2-0------------|
A|--555555555--8--5--3--2h3p2-0-----555555555--6--5--3--2h3p2-0------------|
D|-------------8--5--3--2h3p2-0----------------6--5--3--2h3p2-0------------|


*Post Pre-Verse*
*verse*
*Bridge*
*Chorus*

Interlude

Both Guitars:
e|---------------------------------------------------|
B|---------------------------------------------------|
G|--------------2222222----5555555-------------------| x2
D|---0000000----2222222----5555555----5555555--00000-|
A|---0000000----0000000----3333333----5555555--00000-|
D|---0000000----xxxxxxx---------------5555555--00000-|
Pm                                             .....
Intro Pattern


Guitar 1:  
e|---------------------------------|
B|-----------------/10-10-8-6------|
G|---/7--5-7-9---------------------| x2
D|---------------------------------|
A|---------------------------------|
D|---------------------------------|

Guitar 2:
e|-----------------------|
B|-----------------------|
G|-----------------------| x2
D|---0-------7-----3-----|
A|---0-------7-----3-----|
D|---0-------7-----3-----|


Solo

Guitar 1:
e|-------------------------------------------------------------------------|
B|---15b17--15-15h13-13-----------------------------------------------/18--|
G|-----------------------13-15-16-15-16-15-13-15-13~--13h15h16p15p13-------|
D|-------------------------------------------------------------------------|
A|-------------------------------------------------------------------------|
D|-------------------------------------------------------------------------|

e|-------------------/20---13-15-16/18--16--15h16p15-13~---|
B|---13h15h16p15p13----------------------------------------|
G|---------------------------------------------------------|
D|---------------------------------------------------------|
A|---------------------------------------------------------|
D|---------------------------------------------------------|

e|--------------------------------------18-17-18b20--20p18p17p15-15--------|
B|-------12h14h15/17-------15h17h18/20-------------------------------------|
G|-----14----------------17------------------------------------------------|
D|---15----------------18--------------------------------------------------|
A|-------------------------------------------------------------------------|
D|-------------------------------------------------------------------------|

e|-------------------------------------------------15h17h18p17p15--17/20---|
B|---------------------------15h17h18p17p15--17/20-------------------------|
G|---13h15h16p15p13--15/18-------------------------------------------------|
D|-------------------------------------------------------------------------|
A|-------------------------------------------------------------------------|
D|-------------------------------------------------------------------------|

e|--18-20-22~------|
B|-----------------|
G|-----------------|
D|-----------------|
A|-----------------|
D|-----------------|

Guitar 2:
e|----------------------------------|
B|----------------------------------|
G|---7------7------7----------------| x4
D|---7------7------7------7-5-3-----|
A|---5------5------5------7-5-3-----|
D|-----0000---0000---0000-7-5-3-----|
Pm     ....   ....   ....
Post Solo

Guitar 1:
e|-------------------------------------------------------------------------|
B|----------------------------------------13~----------13-12-10------------|
G|---13/15\13/16~--13/15\13/18~--13/15\13-----13/15\13---------------------|
D|-------------------------------------------------------------------------|
A|-------------------------------------------------------------------------|
D|-------------------------------------------------------------------------|

e|---------------------13~-----------12~-----------18~---------------------|
B|------------13-15-16------13-12-11-----13-12-11--------------------------|
G|---13-15-16--------------------------------------------------------------|
D|-------------------------------------------------------------------------|
A|-------------------------------------------------------------------------|
D|-------------------------------------------------------------------------|

Guitar 2:
e|-------------------------------|
B|-------------------------------|
G|-------------------------------| x4
D|---000000111111555555333333----|
A|---000000111111555555333333----|
D|---000000111111555555333333----|

Pre-Final Chorus:

Both Guitars:
e|-------------------------------------------------------------------------|
B|-------------------------------------------------------------------------|
G|-------------------------------------------------------------------------|
D|---0000--3333--2222-------0000--00-7-7--3-5------------------------------|
A|---0000--3333--2222-------0000--00-7-7--3-5------------------------------|
D|---0000--3333--2222--0-3~-0000--00-7-7--3-5------------------------------|
Pm   ....  ....  ....  .    ....  ..

Final Chorus

Both Guitars:
e|-------------------------------------------------------------------------|
B|-------------------------------------------------------------------------|
G|--777777777-----------------------777777777------------------------------|
D|--777777777--7--5--3--2h3p2-0-----777777777--6--5--3--2h3p2-0------------|
A|--555555555--7--5--3--2h3p2-0-----555555555--6--5--3--2h3p2-0------------|
D|-------------7--5--3--2h3p2-0----------------6--5--3--2h3p2-0------------|

e|-------------------------------------------------------------------------|
B|-------------------------------------------------------------------------|
G|--777777777-----------------------777777777------------------------------|
D|--777777777--8--5--3--2h3p2-0-----777777777--666-555-333-----------------|
A|--555555555--8--5--3--2h3p2-0-----555555555--666-555-333-----------------|
D|-------------8--5--3--2h3p2-0----------------666-555-333--23232323232320-|
Pm                                             ... ... ...  ..............

*Chorus*
*Pre-Verse*
*Intro*

| /  slide up
| \  slide down
| h  hammer-on
| p  pull-off
| ~  vibrato
| +  harmonic
| x  Mute note
============================================================================

									


911Tabs.com - tabs search engine
More "Forgotten Faces" tabs @ 911Tabs

A Guide to Tab NotationGuitar TabsGuitar ResourcesGuitar TabsPrivacy PolicyGuitar TabsContact

Online Guitar Lessons

Avenged Sevenfold Guitar Tabs - Over 200,000 chords, guitar and bass tabs with video. Find tabs, video guitar lessons and more.