Music Guitar Tab, Tabs with MP3, ringtones, ringtone, concert tickets, guitar lessons, guitar tabs easy, guitar hero

Guitar Tabs Guitar Chords Bass Tabs
 Web Guitar Tabs
Guitar Lessons
 
Lyrics abcdefghijklmnopqrstuvwxyz # Top 100 Lyrics

Guitar Tabs
Guitar Tab






click on, click off


Tab for "Eternal Rest" - Avenged Sevenfold Rating 4Print Guitar Tabs
select alternative YouTube videos below...
Tweak the search term to refine the YouTube video results:         
Share on Facebook

Learn to play this song and others via online guitar lessons @ JamPlay.com!

                                  ETERNAL REST
                        As recorded by Avenged Sevenfold
                     (From the 2004 Album WAKING THE FALLEN)

Gtr I (D A D G B E) - 'Synyster Gates'
Gtr II (D A D G B E) - 'Zacky Vengeance'
Gtr III (E A D G B E) - 'Organ'
Gtr IV (E A D G B E) - 'Neutral Overdub'

Eh..I pretty much butchered the intro solo but it was the best I could do.
I'm almost 100% certain everything else is nearly 100% correct. Enjoy! :-)

 Intro Solo
  Q=108
  C5                                    Eb5     F5  Eb5    F5
 4/4
  Gtr I
   |--3--|  |-----3------|                                   |--3---|
   T  T  T  E           +S   S     +Q    Q           E      +S   S  S
|-12h13h15-15b17r======(15)-15b17-(15)--13b15.5-----13b15==(13)-------|
|---------------------------------------------------------------16-15-|
|---------------------------------------------------------------------|
|---------------------------------------------------------------------|
|---------------------------------------------------------------------|
|---------------------------------------------------------------------|
|
| Gtr II
|           PM------|
|  S        T     T  S       S      Q    S      E S  E       E
|---------------------------------------------------------------------|
|---------------------------------------------------------------------|
|---------------------------------------------------------------------|
|-10-------10----10-10------10-----10----1------3-3--1-------3--------|
|-10-------10----10-10------10-----10----1------3-3--1-------3--------|
|-10-------10----10-10------10-----10----1------3-3--1-------3--------|


  C5                             Eb5     F5  F#5     F5
   |---3----|     |---3----|
   S  S     S     S  S     S  Q   Q           E       +E
|-----------------------------------------------------------|
|-----------------------------------------------------------|
|-----------------------------9--10b12-------10b13---(10)---|
|-----------------------------------------------------------|
|----------------10h12h===13--------------------------------|
|-12h14h===15-----------------------------------------------|
|
|        PM------|                PM----------------------|
|  S     T     T  S     S     Q   S    S S S  S    S   S  S
|-----------------------------------------------------------|
|-----------------------------------------------------------|
|-----------------------------------------------------------|
|-10----10----10-10----10----10---1----1-3-3--4----4---3--3-|
|-10----10----10-10----10----10---1----1-3-3--4----4---3--3-|
|-10----10----10-10----10----10---1----1-3-3--4----4---3--3-|


  C5                                           Eb5   F5              Eb5F5
                                                                      ~~
   |---3----|     |---3----|  |--3--|  |--3--|  |---3---|  |---3---|
   S  S     S     S  S     S  S  S  S  S  S  S  S  S    S  S  S    S  Q
|-17-15----------15--------------------------------------------------15---|
|----------18-------18----17-18-17-15-17-15---------------15-17---18------|
|-------------------------------------------17-14-15---17-----------------|
|-------------------------------------------------------------------------|
|-------------------------------------------------------------------------|
|-------------------------------------------------------------------------|
|
|        PM------|
|  S     T     T  S     S     Q                 S    E          S     E E
|-------------------------------------------------------------------------|
|-------------------------------------------------------------------------|
|-------------------------------------------------------------------------|
|-10----10----10-10----10----10-----------------1----3----------3-----1-3-|
|-10----10----10-10----10----10-----------------1----3----------3-----1-3-|
|-10----10----10-10----10----10-----------------1----3----------3-----1-3-|


  C5                                             Eb5        F5             F#5    F5
   |---3----|     |----3----|   |--3--|  |--3--|  |---3---|   |---3----|
   S  S     S     S  S      S   S  S  S  S  S  S  S  S    S  +S        E    +Q
|---------------------------------------------------------------------------------------|
|---------------------------------------------------------------------------------------|
|---------------------------------------------------------------------------------------|
|----------------12-15----/16-\15-14-12-14-12----12-------------------------------------|
|-12-13----15---------------------------------15----15---13-(13)b13.5-12---(12)---------|
|---------------------------------------------------------------------------------------|
|
|        PM------|                                PM--------------------------------|
|  S     T     T  S     S       Q                 S    S      S          S   S  S S S
|---------------------------------------------------------------------------------------|
|---------------------------------------------------------------------------------------|
|---------------------------------------------------------------------------------------|
|-10----10----10-10----10------10-----------------1----1------3----------3---4--4-3-3---|
|-10----10----10-10----10------10-----------------1----1------3----------3---4--4-3-3---|
|-10----10----10-10----10------10-----------------1----1------3----------3---4--4-3-3---|


  D5                                           F5      G5                F5    G5
   |---3----|     |---3----|  |--3--|  |--3--|            |-----3------|
   S  S     S     S  S     S  S  S  S  S  S  S  E         S     +S     S  Q
|--------------------------------------------------------------------------------|
|----10----13----10-------------10-13-10-------13b15.5---13b15r(13)---11-13b15---|
|-12----------------12-------12----------12--------------------------------------|
|-------------------------12----------------12-----------------------------------|
|--------------------------------------------------------------------------------|
|--------------------------------------------------------------------------------|
|
|        PM------|
|  S     T     T  S     S     Q                 S      E            S     E    E
|--------------------------------------------------------------------------------|
|--------------------------------------------------------------------------------|
|--------------------------------------------------------------------------------|
|-12----12----12-12----12----12-----------------3------5------------5-----3----5-|
|-12----12----12-12----12----12-----------------3------5------------5-----3----5-|
|-12----12----12-12----12----12-----------------3------5------------5-----3----5-|


  D5                              F5      G5      Ab5     G5
   |--3---|     |--3---|  |-3-|   |--3--| |--3--| |--3--|
   S S    S     S S    S  S S S E S S   S S S   S S S   S E
|----------------------5------6-8-8-7---5-7-5-----6-5------------|
|---------8-------6---------8-------------------8-------8-6------|
|----8----------7---------8--------------------------------------|
|-10-------------------------------------------------------------|
|----------------------------------------------------------------|
|----------------------------------------------------------------|
|
|       PM-----|                  PM------------------------|
|  S    T    T  S    S    Q       S   S   S   S   S   S   S S
|----------------------------------------------------------------|
|----------------------------------------------------------------|
|----------------------------------------------------------------|
|-12---12---12-12---12---12-------3---3---5---5---6---6---5-5----|
|-12---12---12-12---12---12-------3---3---5---5---6---6---5-5----|
|-12---12---12-12---12---12-------3---3---5---5---6---6---5-5----|


  D5                       F5 G5       F5    G5
   S  S     S  S  S  S S S  S  S  S  S  S  S  S  S
|--------------------------------------------10----|
|----------------------8---------11----11-13----11-|
|-----------9-----8-10---8-12-13----12-------------|
|-10-12-------10-----------------------------------|
|--------------------------------------------------|
|--------------------------------------------------|
|
|     PM---|
|  S  T  T  S  S  Q         S  E     S  E     E
|--------------------------------------------------|
|--------------------------------------------------|
|--------------------------------------------------|
|-12-12-12-12-12-12---------3--5-----5--3-----5----|
|-12-12-12-12-12-12---------3--5-----5--3-----5----|
|-12-12-12-12-12-12---------3--5-----5--3-----5----|


  D5                         F5    G5    Ab5   G5
   S  S     S  S  S  S  S  S  S  S  S  S  S  S  S  S
|-10-11----13-10----------10-11-13-15-17-18-18-18-18-|
|----------------10-11-13----------------------------|
|----------------------------------------------------|
|----------------------------------------------------|
|----------------------------------------------------|
|----------------------------------------------------|
|
|     PM---|                  PM------------------|
|  S  T  T  S  S  Q           S  S  S  S  S  S  S  S
|----------------------------------------------------|
|----------------------------------------------------|
|----------------------------------------------------|
|-12-12-12-12-12-12-----------3--3--5--5--6--6--5--5-|
|-12-12-12-12-12-12-----------3--3--5--5--6--6--5--5-|
|-12-12-12-12-12-12-----------3--3--5--5--6--6--5--5-|


 Pre-Verse 1
  C5                           EbF5  EbF5  C5                 Eb5 F5  F#5 F5
   S  S     E        E     +E  H            W
|-18-18----18b20----18b20-(18)-----------|-------------------------------------|
|----------------------------------------|-------------------------------------|
|----------------------------------------|-------------------------------------|
|----------------------------------------|-------------------------------------|
|----------------------------------------|-------------------------------------|
|----------------------------------------|-------------------------------------|
|
|     PM---|                                   PM---|         PM------------|
|  S  T  T  S     S  Q         S E S E E    S  T  T  S  S  Q  S S S S S S S S
|----------------------------------------|-------------------------------------|
|----------------------------------------|-------------------------------------|
|----------------------------------------|-------------------------------------|
|-10-10-10-10----10-10---------1-3-3-1-3-|-10-10-10-10-10-10--1-1-3-3-4-4-3-3--|
|-10-10-10-10----10-10---------1-3-3-1-3-|-10-10-10-10-10-10--1-1-3-3-4-4-3-3--|
|-10-10-10-10----10-10---------1-3-3-1-3-|-10-10-10-10-10-10--1-1-3-3-4-4-3-3--|


  C5                 EbF5  EbF5  C5                 Eb5 F5  F#5 F5
  Gtr II
      PM---|                         PM---|         PM------------|
   S  T  T  S  S  Q  S E S E E    S  T  T  S  S  Q  S S S S S S S S
|------------------------------|-------------------------------------|
|------------------------------|-------------------------------------|
|------------------------------|-------------------------------------|
|-10-10-10-10-10-10--1-3-3-1-3-|-10-10-10-10-10-10--1-1-3-3-4-4-3-3--|
|-10-10-10-10-10-10--1-3-3-1-3-|-10-10-10-10-10-10--1-1-3-3-4-4-3-3--|
|-10-10-10-10-10-10--1-3-3-1-3-|-10-10-10-10-10-10--1-1-3-3-4-4-3-3--|


  D5                 F5G5  F5G5  D5                 F5  G5  Ab5 G5
      PM---|                         PM---|         PM------------|
   S  T  T  S  S  Q  S E S E E    S  T  T  S  S  Q  S S S S S S S S
|------------------------------|-------------------------------------|
|------------------------------|-------------------------------------|
|------------------------------|-------------------------------------|
|-12-12-12-12-12-12--3-5-5-3-5-|-12-12-12-12-12-12--3-3-5-5-6-6-5-5--|
|-12-12-12-12-12-12--3-5-5-3-5-|-12-12-12-12-12-12--3-3-5-5-6-6-5-5--|
|-12-12-12-12-12-12--3-5-5-3-5-|-12-12-12-12-12-12--3-3-5-5-6-6-5-5--|


  D5                 F5G5  F5G5  D5                 F5  G5  Ab5 G5
      PM---|                         PM---|         PM------------|
   S  T  T  S  S  Q  S E S E E    S  T  T  S  S  Q  S S S S S S S S
|------------------------------|-------------------------------------|
|------------------------------|-------------------------------------|
|------------------------------|-------------------------------------|
|-12-12-12-12-12-12--3-5-5-3-5-|-12-12-12-12-12-12--3-3-5-5-6-6-5-5--|
|-12-12-12-12-12-12--3-5-5-3-5-|-12-12-12-12-12-12--3-3-5-5-6-6-5-5--|
|-12-12-12-12-12-12--3-5-5-3-5-|-12-12-12-12-12-12--3-3-5-5-6-6-5-5--|


 Riff
  D5           F5D5        F5D5  F5D5    F5D5Ab5
  W            E E E E E E E E   E E E E E E  Q
|----------||------------------|------------------||
|----------||o-----------------|-----------------o||
|----------||------------------|------------------||
|-0--------||--3-0---0---0-3-0-|-3-0---0-3-0-/6---||
|-0--------||o-3-0---0---0-3-0-|-3-0---0-3-0-/6--o||
|-0--------||--3-0---0---0-3-0-|-3-0---0-3-0-/6---||


  F5D5        F5D5  F5D5    F5D5G#5    F5D5  D5    F5D5  F5D5    F5   G#5
  E E E E E E E E   E E E E E E  Q     E E E E E E E E   E E E E  E E  Q
|-----------------|------------------|-----------------|------------------|
|-----------------|------------------|-----------------|------------------|
|-----------------|------------------|-----------------|------------------|
|-3-0---0---0-3-0-|-3-0---0-3-0-/6---|-3-0---0---0-3-0-|-3-0---0--3-0-/6--|
|-3-0---0---0-3-0-|-3-0---0-3-0-/6---|-3-0---0---0-3-0-|-3-0---0--3-0-/6--|
|-3-0---0---0-3-0-|-3-0---0-3-0-/6---|-3-0---0---0-3-0-|-3-0---0--3-0-/6--|
|
| Gtr I
| PM-----------------------------------------------------------|
| E E E E E E E E   E E E E E E  E E   E E E E E E E E   E E E E  E E  Q
|-----------------|------------------|-----------------|---------12s5s12--|
|-----------------|------------------|-----------------|---------12s5s12--|
|-----------------|------------------|-----------------|---------12s5s12--|
|-0-0-0-0-0-0-0-0-|-0-0-0-0-0-0--0-0-|-0-0-0-0-0-0-0-0-|-0-0-0-0----------|
|-0-0-0-0-0-0-0-0-|-0-0-0-0-0-0--0-0-|-0-0-0-0-0-0-0-0-|-0-0-0-0----------|
|-0-0-0-0-0-0-0-0-|-0-0-0-0-0-0--0-0-|-0-0-0-0-0-0-0-0-|-0-0-0-0----------|


    F5D5        F5D5  F5D5    F5  G#5   F5D5        F5D5  F5D5    F5  G#5
    Gtrs I, II
    E E E E E E E E   E E E E E E  Q    E E E E E E E E   E E E E E E  Q
||------------------|-----------------|-----------------|-------------------||
||o-----------------|-----------------|-----------------|------------------o||
||------------------|-----------------|-----------------|-------------------||
||--3-0---0---0-3-0-|-3-0---0-3-0-/6--|-3-0---0---0-3-0-|-3-0---0-3-0-/6----||
||o-3-0---0---0-3-0-|-3-0---0-3-0-/6--|-3-0---0---0-3-0-|-3-0---0-3-0-/6---o||
||--3-0---0---0-3-0-|-3-0---0-3-0-/6--|-3-0---0---0-3-0-|-3-0---0-3-0-/6----||


   Verse 1
    $                           To Coda
    D5                             G5F5G5
    Gtr II
    PM-------------------|     PM|
    |-3-|        |-3-|       |-3-| |-3--|
    E E E E E Q  E E E   E E E E E Q Q  Q  4x
||---------------------|-------------------||
||o--------------------|------------------o||
||---------------------|-------------------||
||--0-0-0-0--------0-0-|-0-----0-0-5-3-/5--||
||o-0-0-0-0--------0-0-|-0-----0-0-5-3-/5-o||
||--0-0-0-0--------0-0-|-0-----0-0-5-3-/5--||


 Guitar Break
  D5
  Gtr I
        ~               ~~~~~~~~~
  |-3-|        |-3-|          |-3--|  |-3--|
  E E E H      E E E    Q    +Q    E  E E  E Q
|--------------------|---------------------------|
|--------------------|-10---(10)-----------------|
|-----7-6------6h7h9-|---------------10p9-10p9---|
|---7----------------|---------------------------|
|-5------------------|---------------------------|
|--------------------|---------------------------|
|
| Gtr II
|       ~
| |-3-|        |-3-|          |-3--|  |-3--|
| E E E H      E E E    Q    +Q    E  E E  E Q
|--------------------|--8----(8)-----------------|
|-----6-5------5h6h8-|---------------10p8-10p8---|
|--------------------|---------------------------|
|---7----------------|---------------------------|
|-5------------------|---------------------------|
|--------------------|---------------------------|
|
| Gtr IV
| PM-------------------|         PM---------------
| |-3-|        |-3-|          |-3--|  |---3----|
| E E E E E Q  E E E    E E   E  E E  Q    Q   Q
|--------------------|---------------------------|
|--------------------|---------------------------|
|--------------------|---------------------------|
|-0-0-0-0--------0-0-|--0--------0-0--0----0---0-|
|-0-0-0-0--------0-0-|--0--------0-0--0----0---0-|
|-0-0-0-0--------0-0-|--0--------0-0--0----0---0-|


        ~               ~~~~~~~~~
  |-3-|        |-3-|          |-3--| |-3-|
  E E E H      E E E    Q    +Q    E E E E Q
|--------------------|--------------------------|
|--------------------|-10---(10)----------------|
|-----7-6------6h7h9-|---------------7p6-7p6----|
|---7----------------|--------------------------|
|-5------------------|--------------------------|
|--------------------|--------------------------|
|
|       ~
| |-3-|        |-3-|          |-3--| |-3-|
| E E E H      E E E    Q    +Q    E E E E Q
|--------------------|--9----(9)----------------|
|-----6-5------5h6h8-|---------------8p7-8p7----|
|--------------------|--------------------------|
|---7----------------|--------------------------|
|-5------------------|--------------------------|
|--------------------|--------------------------|
|
|----------------------|         PM----------|
| |-3-|        |-3-|          |-3--| |---3---|
| E E E E E Q  E E E    E E   E  E E Q   Q   Q
|--------------------|--------------------------|
|--------------------|--------------------------|
|--------------------|--------------------------|
|-0-0-0-0--------0-0-|--0--------0-0-0---0---0--|
|-0-0-0-0--------0-0-|--0--------0-0-0---0---0--|
|-0-0-0-0--------0-0-|--0--------0-0-0---0---0--|


                             Verse 2
  D5
  Gtr II
  PM----------------------------------|
  |-3-| |-3-| |-3-| |-3-|                    |-3-|   |-3-| |-3-| |-3-| |-3-|
  E E E E E E E E E E E E     S T T S S H    E E E   E E E E E E E E E E E E
|-------------------------||-----------------------|--------------------------|
|-------------------------||o----------------------|--------------------------|
|-------------------------||-----------------------|-------------0---2-3p0----|
|-0-0-0-0-0-0-0-0-0-0-0-0-||--0-0-0-0-0-0----------|-----1-3p0-1---1-------1--|
|-0-0-0-0-0-0-0-0-0-0-0-0-||o-0-0-0-0-0-0----------|-0------------------------|
|-0-0-0-0-0-0-0-0-0-0-0-0-||--0-0-0-0-0-0----0-3p2-|---5----------------------|


  A5                                                     D5
  PM------|
                |3-| |-3-|   |-3-| |-3-| |-3-| |-3-|
  S T T S S Q  +Q  E E E E   E E E E E E E E E E E E     W
|--------------------------|---------------3-5-8p6p5--||------|
|--------------------------|-------------3-----------o||------|
|--------------------------|-------3p2-5--------------||------|
|-7-7-7-7-7-7--(7)---------|-0---3--------------------||-0----|
|-7-7-7-7-7-7--(7)-------3-|---0---------------------o||-0----|
|-7-7-7-7-7-7--(7)-2-5p3---|--------------------------||-0----|


   Interlude
    A5          G5            Eb/G
    |-3-| |-3-| |-3-| |-3-|   |-3-| |-3-| |-3-| |-3-|
    E E E E E E E E E E E E   E E E E E E E E E E E E
||--------------------------|-------------------------|
||o-------------------------|-------------------------|
||--------------------------|-------------------------|
||--7-7-7-7-7-7-5-5-5-5-5-5-|-5-5-5-5-5-5-5-5-5-5-5-5-|
||o-7-7-7-7-7-7-5-5-5-5-5-5-|-6-6-6-6-6-6-6-6-6-6-6-6-|
||--7-7-7-7-7-7-5-5-5-5-5-5-|-5-5-5-5-5-5-5-5-5-5-5-5-|


                            1.
  Bb5         A5            D5
  |-3-| |-3-| |-3-| |-3-|   |-3-| |-3-| |-3-| |-3-|
  E E E E E E E E E E E E   E E E E E E E E E E E E
|-------------------------|--------------------------||
|-------------------------|-------------------------o||
|-------------------------|--------------------------||
|-8-8-8-8-8-8-7-7-7-7-7-7-|-0-0-0-0-0-0-0-0-0-0-0-0--||
|-8-8-8-8-8-8-7-7-7-7-7-7-|-0-0-0-0-0-0-0-0-0-0-0-0-o||
|-8-8-8-8-8-8-7-7-7-7-7-7-|-0-0-0-0-0-0-0-0-0-0-0-0--||


 Guitar Break
  2.
  $$
  Gtr I
  |-3-|  |-3-| |-3-|  |-3-|
  E E E  E E E E E E  E E E
|---------------------------|
|---------------------------|
|-5h6p5--------5h6p5--------|
|--------8p7p5--------8p7p5-|
|---------------------------|
|---------------------------|
|
| Gtr II
| |-3-|  |-3-| |-3-|  |-3-|
| E E E  E E E E E E  E E E
|---------------------------|
|---------------------------|
|---------------------------|
|-7h8p7--------7h8p7--------|
|-------10p8p7-------10p8p7-|
|---------------------------|


                                      To Dbl. Coda
                        ~
  |-3-|  |--3--| |-3--|      |-3-| |-3-|   |-3--|
  E E E  E  E  E E  E E Q    E E E E E E   E E  E   Q
|--------------------------|----------------------<12>--|
|--------------------------|-------6p5h6-/10p9h10-------|
|-5h6p5--------------------|-6p5h6----------------------|
|--------8h10p=8-7h=8p7-5--|----------------------------|
|--------------------------|----------------------------|
|--------------------------|----------------------------|
|
|                       ~
| |-3-|  |--3--| |-3--|      |-3-| |-3-|   |-3--|
| E E E  E  E  E E  E E Q    E E E E E E   E E  E   Q
|--------------------------|----------------------------|
|--------------------------|----------------------<12>--|
|--------------------------|-------7p6h7-/10p9h10-------|
|-7h8p7--------------------|-8p7h8----------------------|
|-------10h12p10-8h10p8-7--|----------------------------|
|--------------------------|----------------------------|


   Riff
    F5D5        F5D5  F5D5    F5  Ab5
    Gtr II
    E E E E E E E E   E E E E E E  Q
||------------------|------------------||-|
||o-----------------|-----------------o||-|
||------------------|------------------||-|
||--3-0---0---0-3-0-|-3-0---0-3-0-/6---||-|
||o-3-0---0---0-3-0-|-3-0---0-3-0-/6--o||-|
||--3-0---0---0-3-0-|-3-0---0-3-0-/6---||-|
|
|   Gtr I
|   W                 W
||------------------|------------------||-|
||o-----------------|-----------------o||-|
||------------------|------------------||-|
||------------------|------------------||-|
||o-----------------|-----------------o||-|
||------------------|------------------||-|


    F5D5        F5    F5D5    F5D5Ab5
    E E E E E E E E   E E E E E E  Q
||------------------|-------------------||
||o-----------------|------------------o||
||------------------|-------------------||
||--3-0---0---0-3-0-|-3-0---0-3-0-/6----||
||o-3-0---0---0-3-0-|-3-0---0-3-0-/6---o||
||--3-0---0---0-3-0-|-3-0---0-3-0-/6----||
|
|   PM-------------------------------|
|   E E E E E E E E   E E E E E E  E E
||------------------|-------------------||
||o-----------------|------------------o||
||------------------|-------------------||
||--0-0-0-0-0-0-0-0-|-0-0-0-0-0-0--0-0--||
||o-0-0-0-0-0-0-0-0-|-0-0-0-0-0-0--0-0-o||
||--0-0-0-0-0-0-0-0-|-0-0-0-0-0-0--0-0--||


   Chorus
    Dm         F#m     Em
    Gtr III
    W          H.      Q
||--1--------|-2-------0--|
||o-3--------|-2-------0--|
||--2--------|-2-------0--|
||--0--------|-4-------2--|
||o----------|-4-------2--|
||-----------|-2-------0--|


  Gm          Fm/Bb   E5
   W          H.      Q
|-/3--------|-1----------|
|-/3--------|-1----------|
|-/3--------|-1----------|
|-/5--------|-3-------2--|
|-/5--------|-1-------2--|
|-/3--------|---------0--|


  Dm         Fm/C
  W          W
|-1--------|-1----|
|-3--------|-1----|
|-2--------|-1----|
|-0--------|-3----|
|----------|-3----|
|----------|------|


            D.S. al Coda
  Bbm
  Gtr I
             TP TP TP TP
  W          Q  Q  Q  Q
|----------|--------------||
|----------|-------------o||
|----------|--------------||
|----------|--------------||
|----------|-5--4--7--8--o||
|----------|--------------||
|
| Gtr III
| W          W
|-1--------|--------------||
|-2--------|-------------o||
|-3--------|--------------||
|-3--------|--------------||
|-1--------|-------------o||
|----------|--------------||


   Bridge
    &
    A
    Gtr I
     |--3--|  |---3---|  |--3--|  |--3--|
     e  e  e  e  e    e  e  e  e  e  e  e
||----------------------------------------|
||o---------------------------------------|
||--14-14-14-14-14---14-14-14-14-14-14-14-|
||---x--x--x--x--x----x--x--x--x--x--x--x-|
||o-12-12-12-12-12---12-12-12-12-12-12-12-|
||----------------------------------------|
|
|   Gtr II
|    PM------------------------------------
|    |--3--|                      |--3--|
|    E  E  E  E    E     Q        E  E  E
||----------------------------------------|
||o---------------------------------------|
||----------------------------------------|
||---0--0--0--0----------------------0--0-|
||o--0--0--0--0----------------------0--0-|
||---0--0--0--0----------------------0--0-|


  Bb                  C#
   |---3---|  |--3--|   |--3--|  |--3--|
   e  e    e  e  e  e   e  e  e  e  e  e
|-----------------------------------------|
|-----------------------------------------|
|-15-15---15-15-15-15-/18-18-18-18-18-18--|
|--x--x----x--x--x--x--/x--x--x--x--x--x--|
|-13-13---13-13-13-13-/16-16-16-16-16-16--|
|-----------------------------------------|
|
|-|              PM|
|             |--3--|   |-----3-----|
|  E    E     E  E  E   Q     Q     Q
|-----------------------------------------|
|-----------------------------------------|
|-----------------------------------------|
|--0-------------0--0---5-----3----/5-----|
|--0-------------0--0---5-----3----/5-----|
|--0-------------0--0---5-----3----/5-----|


                                                      D.S.S. al Dbl. Coda
  A                                       F                   E
   |--3--|  |---3---|  |--3--|  |--3--|    |---3---|  |--3--| |-3-| |-3--|
   e  e  e  e  e    e  e  e  e  e  e  e    e  e    e  e  e  e e e e e  e e
|---------------------------------------|-----------------------------------||
|---------------------------------------|----------------------------------o||
|-14-14-14-14-14---14-14-14-14-14-14-14-|-10-10---10-10-10-10-9-9-9-9--9-9--||
|--x--x--x--x--x----x--x--x--x--x--x--x-|--x--x----x--x--x--x-x-x-x-x--x-x--||
|-12-12-12-12-12---12-12-12-12-12-12-12-|--8--8----8--8--8--8-7-7-7-7--7-7-o||
|---------------------------------------|-----------------------------------||
|
|  PM-------------------------------------|              PM|
|  |--3--|                      |--3--|               |--3--| |---3----|
|  E  E  E  E    E     Q        E  E  E    E    E     E  E  E Q   Q    Q
|---------------------------------------|-----------------------------------||
|---------------------------------------|----------------------------------o||
|---------------------------------------|-----------------------------------||
|--0--0--0--0----------------------0--0-|--0-------------0--0-5---3---/5----||
|--0--0--0--0----------------------0--0-|--0-------------0--0-5---3---/5---o||
|--0--0--0--0----------------------0--0-|--0-------------0--0-5---3---/5----||


   Outro
    &&
    D5     C5   Bb5  A5     BbA5F5  G5      D5     C#5    D5  E5
    Gtr II
    Q.   E   Q  Q    H    E E E E   H.        Q      H     Q   Q
||-----------------|--------------|--------------|-----------------|
||o----------------|--------------|--------------|-----------------|
||-----------------|--------------|--------------|-----------------|
||--0----0-/10--8--|-7----7-8-7-3-|-5-------/12--|-\11----12--14---|
||o-0----0-/10--8--|-7----7-8-7-3-|-5-------/12--|-\11----12--14---|
||--0----0-/10--8--|-7----7-8-7-3-|-5-------/12--|-\11----12--14---|


  D5     C5   Bb5  A5     BbA5F5  G5      D5     C#5    D5  E5
  Q.   E   Q  Q    H    E E E E   H.        Q      H     Q   Q
|----------------|--------------|--------------|----------------|
|----------------|--------------|--------------|----------------|
|----------------|--------------|--------------|----------------|
|-0----0-/10--8--|-7----7-8-7-3-|-5-------/12--|-\11----12--14--|
|-0----0-/10--8--|-7----7-8-7-3-|-5-------/12--|-\11----12--14--|
|-0----0-/10--8--|-7----7-8-7-3-|-5-------/12--|-\11----12--14--|


  C5 D5BbD5A5D5C5 Bb5 A5      C5    Bb5       D5    C#5    D5  E5
   PM--------|
   E E E E E E  E E   H.       Q    H..         E     H     Q   Q
|-------------------|-------------|---------------|----------------|
|-------------------|-------------|---------------|----------------|
|-------------------|-------------|---------------|----------------|
|-10-0-8-0-7-0-10-8-|-7-------10--|-8---------/12-|-\11----12--14--|
|-10-0-8-0-7-0-10-8-|-7-------10--|-8---------/12-|-\11----12--14--|
|-10-0-8-0-7-0-10-8-|-7-------10--|-8---------/12-|-\11----12--14--|


  D5     C5   Bb5  A5     BbA5F5  G5      D5
  Q.   E   Q  Q    H    E E E E   H.        Q
|----------------|--------------|--------------|
|----------------|--------------|--------------|
|----------------|--------------|--------------|
|-0----0-/10--8--|-7----7-8-7-3-|-5-------/12--|
|-0----0-/10--8--|-7----7-8-7-3-|-5-------/12--|
|-0----0-/10--8--|-7----7-8-7-3-|-5-------/12--|


  C#5    D5  E5      Dm
    H     Q   Q      W          +W
|-----------------||-1--------|-(1)----*|
|----------------o||-3--------|-(3)----*|
|-----------------||-2--------|-(2)----*|
|-\11----12--14---||-0--------|-(0)----*|
|-\11----12--14--o||-0--------|-(0)----*|
|-\11----12--14---||-0--------|-(0)----*|


Duration Legend
---------------
W - whole; H - half; Q - quarter; E - 8th; S - 16th; T - 32nd; X - 64th; a - acciaccatura
+ - note tied to previous; . - note dotted; .. - note double dotted
Uncapitalized letters represent notes that are staccato (1/2 duration)
Irregular groupings are notated above the duration line
Duration letters will always appear directly above the note/fret number it represents the
duration for.  Duration letters with no fret number below them represent rests.  Multi-
bar rests are notated in the form Wxn, where n is the number of bars to rest for.  Low
melody durations appear below the staff

Tablature Legend
----------------
 h   - hammer-on
 p   - pull-off
 b   - bend
 pb  - pre-bend
 r   - bend release (if no number after the r, then release immediately)
 /\  - slide into or out of (from/to "nowhere")
 s   - legato slide
 S   - shift slide
<n>  - natural harmonic
[n]  - artificial harmonic
n(n) - tapped harmonic
 ~   - vibrato
 tr  - trill
 T   - tap
 TP  - trem. picking
 PM  - palm muting
\n/  - tremolo bar dip; n = amount to dip
 \n  - tremolo bar down
 n/  - tremolo bar up
/n\  - tremolo bar inverted dip
 =   - hold bend; also acts as connecting device for hammers/pulls
 <>  - volume swell (louder/softer)
 x   - on rhythm slash represents muted slash
 o   - on rhythm slash represents single note slash

Misc Legend
-----------
 |  - bar
||  - double bar
||o - repeat start
o|| - repeat end
*|  - double bar (ending)
 :  - bar (freetime)
 $  - Segno
 &  - Coda
Tempo markers - <E/E./Q/Q./H/H.> = BPM(8/16=s8/s16), where s8 = swing 8ths, s16 = swing 16ths
									


911Tabs.com - tabs search engine
More "Eternal Rest" tabs @ 911Tabs

A Guide to Tab NotationGuitar TabsGuitar ResourcesGuitar TabsPrivacy PolicyGuitar TabsContact

Online Guitar Lessons

Avenged Sevenfold Guitar Tabs - Over 200,000 chords, guitar and bass tabs with video. Find tabs, video guitar lessons and more.