Music Guitar Tab, Tabs with MP3, ringtones, ringtone, concert tickets, guitar lessons, guitar tabs easy, guitar hero

Guitar Tabs Guitar Chords Bass Tabs
 Web Guitar Tabs
Guitar Lessons
 
Lyrics abcdefghijklmnopqrstuvwxyz # Top 100 Lyrics

Guitar Tabs
Guitar Tab






click on, click off


Tab for "Dear God Solo" - Avenged Sevenfold Rating 4Print Guitar Tabs
select alternative YouTube videos below...
Tweak the search term to refine the YouTube video results:         
Share on Facebook

Learn to play this song and others via online guitar lessons @ JamPlay.com!

Dear God Solo
Guitars Tuned To Dropped D (D A D G B E)

Gtr I (D A D G B E) - 'Lead One'
Gtr II (D A D G B E) - 'Lead Two'
Gtr III (D A D G B E) - 'Lead Three' 

Temp. - 68 BPM

 Gtr I
     Full Step Bends                  Full
E||--10-----10-------9------9------|------------------------17-------------|
B||--13b----13pb----12b----12pb----|--13b----15-13----15-13------17--15----|
G||--------------------------------|---------------14-------------------17-|
D||--------------------------------|---------------------------------------|
A||--------------------------------|---------------------------------------|
D||--------------------------------|---------------------------------------|

  Full    Full      Half Half  Slide                    Shift Slides   
------------------------------------|----------------------------------------|
-------18-------18--16b--16b--------|--------------------18S-17--------------|
--17b------17b------17b--17b--------|--------19--19-------------19S-17-19----|
-------------------------------/19--|--(19)-----------19---------------------|
------------------------------------|----------------------------------------|
------------------------------------|----------------------------------------|


  Gtr I                                            
  Tied Note
|--------------------------------|
|--------------------------------|
|-(19)\--------------------------|
|--------------------------------|
|--------------------------------|
|--------------------------------|
|
| Gtr II
| Half Half      Half Half
|--9b--9b--(9)\---8b--8b--(8)\---|
|--------------10-------------10-|
|--------------------------------|
|--------------------------------|
|--------------------------------|
|--------------------------------|


Gtr II
          Full                             1 1/2 step   Full   1 1/2
------------------------------------------|------------------------------|
--11--11--11br----10----------------------|------------------------------|
---------------------10-------------------|---------10--10pbr--9b--------|
------------------------10----------10-12-|--12b-------------------------|
---------------------------13-12-13-------|------------------------------|
------------------------------------------|------------------------------|


 2 1/2                              Full Full           Full Full    
----------------------------------|------------------------------------------|
-----------13-11-10---------------|------------------------------------------|
--10b---------------10-----12\----|--12b-12b-10----10----12b-12b-10----10----|
-----------------------10---------|-------------10------------------10-------|
----------------------------------|------------------------------------------|
----------------------------------|------------------------------------------|


 Full Full           Full                                  
---------------------------------|
----------------11----11b--------|
--12b-12b-10---------------------|
-------------10------------------|
---------------------------------|
---------------------------------|



Gtr III

|----------------------------------------|-------------------/17--17p-15-------|
|--/15---12h-15-15----/14---11h-14-14----|--/18--------------------------18-17-|
|----------------------------------------|-------------------------------------|
|----------------------------------------|-------------------------------------|
|----------------------------------------|-------------17-17-------------------|
|----------------------------------------|-------------------------------------|
|
| Gtr II
| Tied
|----------------------------------------|-------------------------------------|
|-(11)~----------------(REST)------------|-------------------------------------|
|----------------------------------------|-------------------------------------|
|----------------------------------------|-------------------------------------|
|----------------------------------------|-------------------------------------|
|----------------------------------------|-------------------------------------|


Gtr III
  Half               Full            Full   Shift Slide
----------------------------|---------------17S--20---17--------|
-----------18--17----18b----|--18----20b-----------------20p-18-|
--18b-----------------------|-----------------------------------|
----------------------------|-----------------------------------|
----------------------------|-----------------------------------|
----------------------------|-----------------------------------|


Legato Slides   
---------20---------20---------21---------21--|
--20s-22-----20s-22-----20s-22-----20s-22-----|
----------------------------------------------|
----------------------------------------------|
----------------------------------------------|
----------------------------------------------|


Gtr III
         Full            
|---------20b~-------17p-15----17p-15----15-|-(15)~-(15)\-----------------------------|
|--20s-22-------------------18--------18----|-----------------------------------------|
|-------------------------------------------|-----------------------------------------|
|-------------------------------------------|-----------------------------------------|
|-------------------------------------------|-----------------------------------------|
|-------------------------------------------|-----------------------------------------|
|
| Gtr II
|     Rest
|-------------------------------------------|-----------------------------------------|
|-------------------------------------------|--/15--13----15--13----14----------------|
|-------------------------------------------|----------14--------14-----15-14-15--14--|
|-------------------------------------------|-----------------------------------------|
|-------------------------------------------|-----------------------------------------|
|-------------------------------------------|-----------------------------------------|


 Gtr II

|--------------------------------------------|
|--------------------------------------------|
|--12----------------------------------------|
|-----15-12-15--12---------------------------|
|------------------15\-----------------------|
|--------------------------------------------|
|
| Gtr I
|                    1 1/2 Step Bend
|--------------------------------------------|
|--------------------------------------------|
|------------------------12-----12g14--------|
|------------------------14b----------15-12--|
|--------------------------------------------|
|--------------------------------------------|


Gtr I
     PM|---|    PM|---|    PM|---|    PM|---|    PM|-|
-------------------------------------------------------|
--/10--------10~--------10~--------10~--------10~------|
-------------------------------------------------------|
-------12-12------12-12------12-12------12-12------12--|
-------------------------------------------------------|
-------------------------------------------------------|


PM|---|               
--------10~---(10)\-----------------------|--------------------------------|
------------------------------------15----|--15--15--17b----17--17--19b----|
-------------------------10--/14-14----14-|--------------------------------|
--12-12------------12-12------------------|--------------------------------|
------------------------------------------|--------------------------------|
------------------------------------------|--------------------------------|

    
----------17b-------------------------|--------------------------------|
--18--18---------20b-20-18-20---------|----------17b----17--17--19b----|
------------------------------19---17-|--19--19------------------------|
--------------------------------------|--------------------------------|
--------------------------------------|--------------------------------|
--------------------------------------|--------------------------------|


                                       Gtr I
           Half                        Repeat To Fade 
|----------------------------------||--------------------------------|
|--18--18--------------------------||o-------------------------------|
|----------18b----17-17-19---------||---------12--14-------------12--|
|---------------------------17~----||--14b------------13b----15------|
|----------------------------------||o-------------------------------|
|----------------------------------||--------------------------------|
|
|                                    Gtr II
|                                     All Half Step Bends for Both Scores
|----------------------------------||--------------------------------|
|----------------------------------||o-------------------------------|
|----------------------------------||---------9---10---------7---9---|
|----------------------------------||--11b------------10b------------|
|----------------------------------||o-------------------------------|
|----------------------------------||--------------------------------|

  
|---------------13-----------------------|--------------------------------|
|-----------15--------------15p-13----13-|--------------------------------|
|-------15----------14-------------15----|---------12--14-------------12--|
|--14b------------------15---------------|--14b------------13b----15------|
|----------------------------------------|--------------------------------|
|----------------------------------------|--------------------------------|
|
|  
|---------------10-----------------------|--------------------------------|
|-----------11------13--10--11--10--8-10-|--------------------------------|
|-------10-------------------------------|---------9--10----------7---9---|
|--11b-----------------------------------|--11b------------10b------------|
|----------------------------------------|--------------------------------|
|----------------------------------------|--------------------------------|


 
|---------------13--------------------||
|-----------15-----------------------o||
|-------15----------14--14h-15p-12----||
|--14b--------------------------------||
|------------------------------------o||
|-------------------------------------||
|
|
|---------------10-----------10-------||
|-----------11------13--13-----------o||
|-------10----------------------9~----||
|--11b--------------------------------||
|------------------------------------o||
|-------------------------------------||

I Didn't bother with the rhythm guitar but the chords sound like:

D5 (x577xx)
C#5 (x466xx)
A#5 (x133xx)
F5 (333xxx)

Over and over. Good Luck.


-Seth Sanders {F.u.c.kallyourfalsebeauty@hotmail.com}
									


911Tabs.com - tabs search engine
More "Dear God Solo" tabs @ 911Tabs

A Guide to Tab NotationGuitar TabsGuitar ResourcesGuitar TabsPrivacy PolicyGuitar TabsContact

Online Guitar Lessons

Avenged Sevenfold Guitar Tabs - Over 200,000 chords, guitar and bass tabs with video. Find tabs, video guitar lessons and more.