Music Guitar Tab, Tabs with MP3, ringtones, ringtone, concert tickets, guitar lessons, guitar tabs easy, guitar hero

Guitar Tabs Guitar Chords Bass Tabs
 Web Guitar Tabs
Guitar Lessons
 
Lyrics abcdefghijklmnopqrstuvwxyz # Top 100 Lyrics

Guitar Tabs
Guitar Tab






click on, click off


Tab for "Darkness Surrounding" - Avenged Sevenfold Rating 4Print Guitar Tabs
select alternative YouTube videos below...
Tweak the search term to refine the YouTube video results:         
Share on Facebook

Learn to play this song and others via online guitar lessons @ JamPlay.com!

Dropped D Tuning

Intro 
G|-----------------------------------------------------------------|
D|------------------------------------454--------------------------|
A|-33--333--3-55--555--5-77--777--777-----754--33--333--3-55--555--|
D|-----------------------------------------------------------------|

G|-----------------------|---|----|
D|-----------------------|---|----|
A|-5-77--777--777--777-7-|-3-|-7\-|
D|-----------------------|---|----|

Verse x 8
G|-------------|
D|-------------|
A|-------------|  
D|-22-2h3p2-03-|

Intro x 1
Verse x 16

Verse 2 x 2
G|--------------------------------------|
D|--------------------------------------|
A|-----------3\2----------------3\2-5\2-|
D|-2-22222-2-----4-5--2-22222-2---------|

Breakdown
G|---------------------------------------------------------------|
D|---------------------------------------------------------------|
A|---1-1-1---1-1---111-------------1-1-1---1-1---111-------------|
D|-2-------2-----2-----23235323--2-------2-----2-----2-3-2-3-5-3-|

G|--------------------------------------------------------------------|
D|--------------------------------------------------------------------|
A|---1111--1-1-1--1111-----------------1111--1111----1111-------------|
D|-22----22-----2------2-3-2-3-5-3--22------------22------2-3-2-3-5-3-|

G|--------|
D|--------|
A|--------|
D|-2~~~---|


Bridge pt 1
G|------------------------------------------|
D|------------------------------------------|
A|------------------------------------------|
D|-02023202--02023202--02023202--02023202---|

G|------------------------------------------|
D|------------------------------------------|
A|------------------------------------------|
D|-02023202--02023202--02023202--0202320~---|

Bridge pt 2
G|------------------------------------------|
D|------------------------------------------|
A|------------------------------------------|
D|-02023202--02023202--02023202--02023200~--|

G|------------------------------------------|
D|------------------------------------------|
A|------------------------------------------|
D|-02023202--02023202------------0202320~---|

-Break-
(Wait for guitars)

Breakdown pt 2 x 4
G|-------------------------------------------------------------|
D|-------------------------------------------------------------|
A|-------------------------------------------------------1-1-1-|
D|-2-223-22-22-53-2-223-22-22-23-2-223-22-22-53-2-223-22-------|

Interlude
G|-------------------------------|
D|-------------------------------|
A|---2/5---3---3/5---------3---5-|
D|-2---------------2--2\0--------|

Chorus 
G|------------------------------------------------|
D|----------------------22222-4-5-4---------------|
A|--------0-2-3333-5555-------------33---3--------|
D|-222222------------------------------5---00-5-4-|

G|----------------------------------------|
D|----------------------------------------|
A|----------3333---------------3333-------|
D|-22222222------0000-22222222------0000--|

Interlude pt 2
G|------------------------------------------------------|
D|------------------------------------------------------|
A|---2/5-3-3-5---------3-5---2/5-3-3/5-------5-3-5--555-|
D|-2--------5--5\2-2\0-----2-----------5\2-2------------|

Chorus Variation
G|----------------------------------------------|
D|--------------2-------22222-4-5-4-------------|
A|--------0-2-33-3-5555-------------3333--------|
D|-222222--------------------------------00-5-4-|

G|-----------------------------------------------------|
D|-------2---2-4---5-2---00-5-4------2---2-------------|
A|-----2---2-----3-----3-----------2---------3333------|
D|-222--------------------------222----2---2------0000-|

G|--------------------------------------------------------|
D|--------------------------------2-----5-4-2-----2-4-5-4-|
A|---------3333----------2-----33---355-------2-----------|
D|-2-2-222------0000-222---222------------------2---------|

G|----------------------------------------|
D|----2-----------2---------2-------------|
A|-33---3-5555-----------33---3-----------|
D|-------------22---22-4--------0000-2~~~-|

Outro(Fades out)
G|----------------------------------------------------|
D|----------------------------0-2---2-4----2------5-4-|
A|-----------33---3-5555----2-----------33---3-55-----|
D|-2222-2222----2--------22-------2-------------------|

G|--------------------------------------------|
D|-22-44-5-4-2-0------------------------------|
A|---------------3333-5555-----------3333-----|
D|-------------------------2222-2222------0000|
									


911Tabs.com - tabs search engine
More "Darkness Surrounding" tabs @ 911Tabs

A Guide to Tab NotationGuitar TabsGuitar ResourcesGuitar TabsPrivacy PolicyGuitar TabsContact

Online Guitar Lessons

Avenged Sevenfold Guitar Tabs - Over 200,000 chords, guitar and bass tabs with video. Find tabs, video guitar lessons and more.