Music Guitar Tab, Tabs with MP3, ringtones, ringtone, concert tickets, guitar lessons, guitar tabs easy, guitar hero

Guitar Tabs Guitar Chords Bass Tabs
 Web Guitar Tabs
Guitar Lessons
 
Lyrics abcdefghijklmnopqrstuvwxyz # Top 100 Lyrics

Guitar Tabs
Guitar Tab






click on, click off


Tab for "Crossroads" - Avenged Sevenfold Rating 4Print Guitar Tabs
select alternative YouTube videos below...
Tweak the search term to refine the YouTube video results:         
Share on Facebook

Learn to play this song and others via online guitar lessons @ JamPlay.com!

Tabbed by: therapture
Email: rapture_cheapshot@yahoo.com

Tuning:Drop D

Ive updated it completely now enjoy!

   Riff A     {Tremolo Pick the 14s)
e|----------------------------------------------------------------|
B|----------------------------------------------------------------|
G|----------------------------------141414141414------------------|
D|-5h6--0-0-0-0-0-0-0---------------191919191919------------------| x4
A|-5h6--0-0-0-0-0-0-0---------------------------------------------|
D|-5h6--0-0-0-0-0-0-0---------------------------------------------|
 PM:    *   *   *   *


This part is played when Riff A is bein played for the third and fourth time. Use Pinch
Squeelies


e|----------------------------------------------------------------|
B|----------------(16)/---------------(18)\-(really Squeel)-------|
G|----------------------------------------------------------------|
D|----------------------------------------------------------------|
A|----------------------------------------------------------------|
D|----------------------------------------------------------------|


  |Riff B|
e|----------------------------------------------------------------|
B|----------------------------------------------------------------|
G|------------------------------------141414141414----------------|
D|--5h6--0-0-0-0-0-0-0----------------191919191919----------------| x4
A|--5h6--0-0-0-0-0-0-0--------------------------------------------|
E|--5h6--0-0-0-0-0-0-0--------------------------------------------|
  PM:    *   *   *   *


e|----------------------------------------------------------------|
B|----------------------------------------------------------------|
G|----------------------------------------------------------------|
D|----8----7----5----3--------------------------------------------|
A|----8----7----5----3--------------------------------------------|
D|----8----7----5----3--------------------------------------------|
PM:        *    *    *

 Repeat |Riff A| x4 for the verse

  |Riff C| (This riff is just like Riff A except you play the opens with downstrokes/sweeping)
e|----------------------------------------------------------------|
B|----------------------------------------------------------------|
G|--------------------------------------141414141414--------------|
D|--5h6----0-0-0-0-0-0-0-0-0-0----------191919191919--------------|x4
A|--5h6----0-0-0-0-0-0-0-0-0-0------------------------------------|
E|--5h6----0-0-0-0-0-0-0-0-0-0------------------------------------|
  PM:      * * * * * * * * * *


  |Pre-Chorus Syns Part|
e|----------------------------------------------------------------|
B|----------------------------------------------------------------|
G|----14h12h14---10-12-9-10-7-----------14h12h14---10-12-9-10^----|
D|----------------------------------------------------------------|
A|----------------------------------------------------------------|
D|----------------------------------------------------------------|

e|-----------------------------------------------------------(14)-|
B|---------------------------------------------------12h13h15-----|
G|----14h12h14---10-12-9-10-7-----------------12h14h15------------|
D|--------------------------------------12h14h15------------------|
A|----------------------------------------------------------------|
D|----------------------------------------------------------------|


  |Pre-Chorus Zackys Part|
e|----------------------------------------------------------------|
B|----------------------------------------------------------------|
G|----------------------------------------------------------------|
D|----15h13h15---12-14-10-12-----------15h13h15---12-14-10-12^----|
A|---------------------------13-----------------------------------|
D|----------------------------------------------------------------|

e|----------------------------------------------------------------|
B|-----------------------------------------------------------(15)-|
G|---------------------------------------------------13h15h16-----|
D|----15h13h15---12-14-10-12------------------13h15h16------------|
A|---------------------------13--------12h14h15-------------------|
D|----------------------------------------------------------------|


  |Pre-Chorus Rythym|
e|----------------------------------------------------------------|
B|----------------------------------------------------------------|
G|----3~--------2~----------10------9-------10~-------------------|
D|----1~--------2~----------8-------7-------8~--------------------|
A|----1~--------0~----------8-------7-------8~--------------------|
D|----------------------------------------------------------------|


  |Chorus|  *16th notes so strum fast, more than I wrote
e-----------------------------------------------------------------|
B-----------------------------------------------------------------|
G-----------------------------------------------------------------|
D---------1212----1212----1212---------101010121212---------------|
A-10101010----8888----8888----12121212--------------10101010------|
D-----------------------------------------------------------------|
  "If I was perfect..."      "I walk through the center..."

  |Chorus| (Continued)
e-----------------------------------------------------------------|
B-----------------------------------------------------------------|
G-----------------------------------------------------------------|
D---------1212----1212----1212--------1010-1212-1515-1212-1515----|
A-10101010----8888----8888----12121212----------------------------|
D-----------------------------------------------------------------|
  "Either roads plausable..."        "I realize its difficult..."


Then we go back to...

|Riff A|x1

|Riff B|x4

|Riff C|x4

|Pre Chorus|x1

|Entire Chorus|x1

   |Bridge|
e|----------------------------------------------------------------|
B|----------------------------------------------------------------|
G|----------------------------------------------------------------|
D|----0--0--7--5--3--2--3---000-000-------------------------------|x2
A|----0--0--7--5--3--2--3---000-000-------------------------------|
D|----0--0--7--5--3--2--3---000-000-------------------------------|
PM:   *  *                  *** ***

  |Bridge Interlude Syns Part|
e|-------------------------------------------------------------------|
B|---------6-------------8---------------10------------------13------|
G|-------7--7----------9--9------------11--11--------------14-14-----|
D|------7----7--------9----9---------11------11----------14-----14---|
A|---5-8------8---7-10------10---9-12----------12---12-15---------15-
D|-------------------------------------------------------------------| 
 
   
  |Bridge Interlude Zackys Part|
e|----------------------------------------------------------------|
B|-------1------------3------------5----------------8-------------|
G|-----2--2---------4--4---------6--6-------------9--9----------- |
D|----3----3-------5----5-------7----7----------10-----10---------|
A|-1-3------3---3-5------5---5-7------7----8--10---------10-------|
D|----------------------------------------------------------------| 
 


|Bridge|x1

|Bridge Interlude|x1

  |Riff D|
e|----------------------------------------------------------------|
B|----------------------------------------------------------------|
G|----------------------------------------------------------------|
D|----------1-1-1-1-1-1-1-1/-------5-5-5-5-5-5-5-5----------------|x3
A|----------1-1-1-1-1-1-1-1/-------5-5-5-5-5-5-5-5----------------|
D|----------1-1-1-1-1-1-1-1/-------5-5-5-5-5-5-5-5----------------|


  |Interlude A|
e|------------------------------------------------------------------------|
B|------------------------------------------------------------------------|
G|------------------------------------------------------------------------|
D|------10--------10----------12--------12----------14---------12-12\10/12|
A|----8----8----8----8-----10----10---10---10----12---12----12------------|
D|--8---------8---------10----------10--------12---------12---------------|

  |Interlude A| (Continued)
e|---------------------------------------------------------------------------|
B|---------------------------------------------------------------------------|
G|---------------------------------------------------------------------------|
D|------10---------10----------12----------12----------14----------12b/15b---|
A|----8----8-----8----8-----10----10----10----10----12----12-----12----------|
D|---8--------8----------10----------10----------12-----------12-------------|


  |Interlude B|
e|--------------------------------------------------------------------------|
B|--------------------------------------------------------------------------|
G|--------------------------------------------------------------------------|
D|--------10----10--10----10--10^--------12----12----12------12---12^-------|
A|------8-----8---------8-------------10-----10-----------10----------------|
D|-----8-----8----8----8----8-------10------10----10----10-----10-----------|


  |Interlude End Riff| play this at the very end of the interlude
e|----------------------------------------------------------------|
B|----------------------------------------------------------------|
G|----------------------------------------------------------------|
D|-------------8~-------9~-------10~-------11~--------- ----------|
A|-------------8~-------9~-------10~-------11~--------------------|
D|-------------8~-------9~-------10~-------11~--------------------|

|Riff A| x4


  |Solo| Riff A is played for the rhythm
e|----------------------------------------------------------------|
B|----------------15--18--18^-------------------------------------|
G|----------13-16-------------------------------------------------|
D|---12-15--------------------------------------------------------|
A|----------------------------------------------------------------|
D|----------------------------------------------------------------|


e|----------------------------------------------------------------|
B|-----------------15b-17-----------------------------------------|
G|----------13-16---------13^-------------------------------------|
D|---12-15--------------------------------------------------------|
A|----------------------------------------------------------------|
D|----------------------------------------------------------------|

e|----------------------17b---------------------------------------|
B|----------------15-18-------------------------------------------|
G|----------13-16-------------------------------------------------|
D|---12-15--------------------------------------------------------|
A|----------------------------------------------------------------|
D|----------------------------------------------------------------|

e|----------------------------------------------17b------------------|
B|-----------------15h18h15--18----15h18h15---15---------------------|
G|----------13-16----------18---------------18-----------------------|
D|---12-15-----------------------------------------------------------|
A|-------------------------------------------------------------------|
D|-------------------------------------------------------------------|

e|------------17-----------15h17h15h17h15-------------------------|
B|---15-18-15----18-15--------------------18-15-------------------|
G|----------------------------------------------15-14b-14b--------|
D|----------------------------------------------------------------|
A|----------------------------------------------------------------|
D|----------------------------------------------------------------|

e|------------17-----------------------------15-18b---------------|
B|---15-18-15----18-18--------------15-17-18----------------------|
G|-------------------------14-15-18-------------------------------|
D|----------------------------------------------------------------|
A|----------------------------------------------------------------|
D|----------------------------------------------------------------|

e|------------17----------------15h17h18h17h18-//22b--------------|
B|---15-18-15----18-15----15-18-----------------------------------|
G|----------------------------------------------------------------|
D|----------------------------------------------------------------|
A|----------------------------------------------------------------|
D|----------------------------------------------------------------|

e|------------17----------19bp-19bp-19bp-------------------------------|
B|---15-18-15----18-18-------------------------------------------------|
G|---------------------------------------------------------------------|
D|---------------------------------------------------------------------|
A|---------------------------------------------------------------------|
D|---------------------------------------------------------------------|

e|--19-18-17-18-17-16-15-16-15-14-15-16-17b-------(21)------------|
B|----------------------------------------------------------------|
G|----------------------------------------------------------------|
D|----------------------------------------------------------------|
A|----------------------------------------------------------------|
D|----------------------------------------------------------------|

|Chorus|x1

|Riff A|x4

  |Outro|
e|----------------------------------------------------------------|
B|----------------------------------------------------------------|
G|----------------------------------------------------------------|
D|-----8~------7-----5-----3---------000--000--00000--------------|
A|-----8~------7-----5-----3---------000--000--00000--------------|
D|-----8~------7-----5-----3---------000--000--00000--------------|
PM:            *     *     *         ***  ***  *****

| ^  Tremolo
|( ) Natural Harmonic
| /  Slide up
| \  Slide down
| h  Hammer-on
| p  Pull-off
| ~  Held Note
| x  Mute note
| *  Palm mute
=============================================================================
									


911Tabs.com - tabs search engine
More "Crossroads" tabs @ 911Tabs

A Guide to Tab NotationGuitar TabsGuitar ResourcesGuitar TabsPrivacy PolicyGuitar TabsContact

Online Guitar Lessons

Avenged Sevenfold Guitar Tabs - Over 200,000 chords, guitar and bass tabs with video. Find tabs, video guitar lessons and more.