Music Guitar Tab, Tabs with MP3, ringtones, ringtone, concert tickets, guitar lessons, guitar tabs easy, guitar hero

Guitar Tabs Guitar Chords Bass Tabs
 Web Guitar Tabs
Guitar Lessons
 
Lyrics abcdefghijklmnopqrstuvwxyz # Top 100 Lyrics

Guitar Tabs
Guitar Tab






click on, click off


Tab for "Crossroads" - Avenged Sevenfold Rating 4Print Guitar Tabs
select alternative YouTube videos below...
Tweak the search term to refine the YouTube video results:         
Share on Facebook

Learn to play this song and others via online guitar lessons @ JamPlay.com!

-------------------------------------------------------------------------------
			  Crossroads - Avenged Sevenfold
-------------------------------------------------------------------------------
Tabbed by: TheNextSynGates
Email: Spyderkm@aim.com

Tuning:Drop D
*This is my first tabs and ive only played guitar for a few months. criticism would be 
leave comments*

   |Intro(Riff A)|     {Tremolo Pick the 7s)
e|----------------------------------------------------------------|
B|----------------------------------------------------------------|
G|----------------------------------------------------------------|
D|---------------------(7)(7)(7)(7)(7)(7)-------------------------| x4
A|-0h5h7--0-0-0-0-0-0---------------------------------------------|
D|-0h5h7--0-0-0-0-0-0---------------------------------------------|
 PM:        *   *   *


*This part is played when RiffA is being played for the third and fourth time. Use 
squealies on these harmonics.*


e|----------------------------------------------------------------|
B|----------------------------------------------------------------|
G|----------------------------------------------------------------|
D|------(5)~~~~~~~~~~~~---(3)~~~~~~~~~~~~-----(2)~~~~~~~~~~-------|
A|----------------------------------------------------------------|
D|----------------------------------------------------------------|


  |Riff B|
e|----------------------------------------------------------------|
B|----------------------------------------------------------------|
G|----------------------------------------------------------------|
D|---------------------(7)(7)(7)(7)(7)(7)-------------------------| x4
A|--5h7--0-0-0-0-0-0----------------------------------------------|
E|--5h7--0-0-0-0-0-0----------------------------------------------|
  PM:      *   *   *

e|----------------------------------------------------------------|
B|----------------------------------------------------------------|
G|----------------------------------------------------------------|
D|----------------------------------------------------------------|
A|----8~~--7----5----3--------------------------------------------|
D|----8~~--7----5----3--------------------------------------------|
PM:        *    *    *

 Repeat |Riff A| x4 for the verse.

    |Riff C|
e|----------------------------------------------------------------|
B|----------------------------------------------------------------|
G|----------------------------------------------------------------|
D|---------------------(7)(7)(7)(7)(7)(7)-------------------------|x4
A|--5h7-----------------------------------------------------------|
E|--5h7--0-0-0-0-0-0----------------------------------------------|
  PM:    * * * * * *

     |Pre-Chorus|
e|----------------------------------------------------------------|
B|----------------------------------------------------------------|
G|----------------------------------------------------------------|
D|----------------------------------------------------------------|
A|---8-----7-----3---2---7---11-----------------------------------|
D|---8-----7-----3---2---7---11-----------------------------------|


  |Chorus|   * The amount of times you stroke each note is more then i have written 
The chorus is all 16th notes so pickfast*

e----------------------------------------------------------------|
B----------------------------------------------------------------|
G----------------------------------------------------------------|
D---------1212----1212----1212---------101010121212--------------|
A-10101010----8888----8888----12121212---------------------------|
D----------------------------------------------------------------|


e----------------------------------------------------------------|
B----------------------------------------------------------------|
G----------------------------------------------------------------|
D---------1212----1212----1212--------1010-1212-1515-1212-1515---|
A-10101010----8888----8888----12121212---------------------------|
D----------------------------------------------------------------|


e----------------------------------------------------------------|
B----------------------------------------------------------------|
G----------------------------------------------------------------|
D---------1212----1212----1212----1010--------1212----1212-------|
A-10101010----8888----8888----7777----10101010-------------------|
D-------------------------------------------------1212----1212---|


e-----------------------------------------------------------------|
B-----------------------------------------------------------------|
G-----------------------------------------------------------------|
D---------1212----1212----1212----1010--------1212-1515-1212-1515-|
A-10101010----8888----8888----7777----10101010--------------------|
D-----------------------------------------------------------------|

|Riff A|x1

|Riff B|x4

|Riff C|x4

|Pre Chorus|x1

|Chorus|x1

   |Bridge|
e|---------------------------------------------------------------|
B|---------------------------------------------------------------|
G|---------------------------------------------------------------|
D|---------------------------------------------------------------|
A|---7--5--3--5--3--0--000-000-----------------------------------|
D|---7--5--3--5--3--0--000-000-----------------------------------|
   PM:              *  *** ***

I Havent finished the rest of the bridge yet.

|Riff A| x4

The solo was tabbed by Lucionx all credit goes to him for the solo.

e|---------------------------------------------------------------|
B|----------------15--17bp15-17bp15-17bp15-15-17-----------------|
G|----------13-16------------------------------------------------|
D|---12-15-------------------------------------------------------|
A|---------------------------------------------------------------|
D|---------------------------------------------------------------|


e|---------------------------------------------------------------|
B|----------------15--17bp15-17----------------------------------|
G|----------13-16---------------13b------------------------------|
D|---12-15-------------------------------------------------------|
A|---------------------------------------------------------------|
D|---------------------------------------------------------------|

e|---------------------//17b-------------------------------------|
B|----------------15-18------------------------------------------|
G|----------13-16------------------------------------------------|
D|---12-15-------------------------------------------------------|
A|---------------------------------------------------------------|
D|---------------------------------------------------------------|

e|-------------------------------------------17b-----------------|
B|----------------15-18-15----15-18-15----15---------------------|
G|----------13-16----------18----------18------------------------|
D|---12-15-------------------------------------------------------|
A|---------------------------------------------------------------|
D|---------------------------------------------------------------|

e|------------17--------15h17p15h17p15---------------------------|
B|---15-18-15----18-15-----------------18-15---------------------|
G|-------------------------------------------15-14b-14b----------|
D|---------------------------------------------------------------|
A|---------------------------------------------------------------|
D|---------------------------------------------------------------|

e|------------17--------------15-17-18-17-18//22-----------------|
B|---15-18-15----18-15--15-18------------------------------------|
G|---------------------------------------------------------------|
D|---------------------------------------------------------------|
A|---------------------------------------------------------------|
D|---------------------------------------------------------------|

e|------------17--------20-18-17---------------------------------|
B|---15-18-15----18-15-----------18-17-------17------------------|
G|-------------------------------------18-19---------------------|
D|---------------------------------------------------------------|
A|---------------------------------------------------------------|
D|---------------------------------------------------------------|

e|------------17-------19bp17-19bp17-19bp17----------------------|
B|---15-18-15----18-15-------------------------------------------|
G|---------------------------------------------------------------|
D|---------------------------------------------------------------|
A|---------------------------------------------------------------|
D|---------------------------------------------------------------|

e|--19-18-17-18-17-16-15-17-16-15-14-15-16-17b-------------------|
B|---------------------------------------------------------------|
G|---------------------------------------------------------------|
D|---------------------------------------------------------------|
A|---------------------------------------------------------------|
D|---------------------------------------------------------------|


|( ) Natural Harmonic
| /  Slide up
| \  Slide down
| h  Hammer-on
| p  Pull-off
| ~  Held Note
| x  Mute note
| *  Palm mute
===============================================================================
									


911Tabs.com - tabs search engine
More "Crossroads" tabs @ 911Tabs

A Guide to Tab NotationGuitar TabsGuitar ResourcesGuitar TabsPrivacy PolicyGuitar TabsContact

Online Guitar Lessons

Avenged Sevenfold Guitar Tabs - Over 200,000 chords, guitar and bass tabs with video. Find tabs, video guitar lessons and more.