Music Guitar Tab, Tabs with MP3, ringtones, ringtone, concert tickets, guitar lessons, guitar tabs easy, guitar hero

Guitar Tabs Guitar Chords Bass Tabs
 Web Guitar Tabs
Guitar Lessons
 
Lyrics abcdefghijklmnopqrstuvwxyz # Top 100 Lyrics

Guitar Tabs
Guitar Tab






click on, click off


Tab for "Crossroads" - Avenged Sevenfold Rating 4Print Guitar Tabs
select alternative YouTube videos below...
Tweak the search term to refine the YouTube video results:         
Share on Facebook

Learn to play this song and others via online guitar lessons @ JamPlay.com!

drop D tuning.
H-HAMMER ON
P-PULL OFF
*-PALM MUTE

                    Do the intro a few times then
e|---------------------------------------------------------------------------|
B|-----------------------10-10-10-10-10-10-10--------------------------------|
G|-----------------------14-14-14-14-14-14-14--------------------------------|
D|-0h5h7--0-0-0-0-0-0-------------------------------------8---7-6-5----------|
A|-0h5h7--0-0-0-0-0-0-------------------------------------8---7-6-5----------|
E|-0h5h7--0-0-0-0-0-0-------------------------------------8---7-6-5----------|
          *   *   *
          verse while shads is singing
e|---------------------------------------------------------------------------|
B|-----------------------10-10-10-10-10-10-10--------------------------------|
G|-----------------------14-14-14-14-14-14-14--------------------------------|
D|-0h5h6--0-0-0-0-0-0--------------------------------------------------------|
A|-0h5h6--0-0-0-0-0-0--------------------------------------------------------|
E|-0h5h6--0-0-0-0-0-0--------------------------------------------------------|
          * * * * * *
right before the chorus
e|--------------------------------------------------------------------------|
B|--------------------------------------------------------------------------|
G|-3-2----------------------------------------------------------------------|
D|-3-2-5-3-0----------------------------------------------------------------|
A|-1-0-5-3-0----------------------------------------------------------------|
E|-----5-3-0----------------------------------------------------------------|

chorus    tremelo pick each note (pick fast)
e|---------------------------------------------------------------------------|
B|---------------------------------------------------------------------------|
G|-14-14-14-10-10-10-7-7-7-5-5-5---------------------------------------------|
D|---------------------------------------------------------------------------|
A|---------------------------------------------------------------------------|
E|---------------------------------------------------------------------------|
REMEMBER: tremelo pick the chorus. its MORE than 3 notes per fret

Bridge fill thing
e|--------------------------------------------------------------------------|
B|--------------------------------------------------------------------------|
G|--------------------------------------------------------------------------|
D|-5-3-2-3-2-0-000-000------------------------------------------------------|
A|-5-3-2-3-2-0-000-000------------------------------------------------------|
E|-5-3-2-3-2-0-000-000------------------------------------------------------|
                gallop

thats all i have figured out right now. ill add more when i figure it out. now im
working on the solo.
									


911Tabs.com - tabs search engine
More "Crossroads" tabs @ 911Tabs

A Guide to Tab NotationGuitar TabsGuitar ResourcesGuitar TabsPrivacy PolicyGuitar TabsContact

Online Guitar Lessons

Avenged Sevenfold Guitar Tabs - Over 200,000 chords, guitar and bass tabs with video. Find tabs, video guitar lessons and more.