Music Guitar Tab, Tabs with MP3, ringtones, ringtone, concert tickets, guitar lessons, guitar tabs easy, guitar hero

Guitar Tabs Guitar Chords Bass Tabs
 Web Guitar Tabs
Guitar Lessons
 
Lyrics abcdefghijklmnopqrstuvwxyz # Top 100 Lyrics

Guitar Tabs
Guitar Tab






click on, click off


Tab for "Critical Acclaim" - Avenged Sevenfold Rating 4Print Guitar Tabs
select alternative YouTube videos below...
Tweak the search term to refine the YouTube video results:         
Share on Facebook

Learn to play this song and others via online guitar lessons @ JamPlay.com!

Hey Me Again This Is The Song Of Avenged Sevenfold's Critical Acclaim. BUT, But I Dont
The Harmony And The Outro For Guitar 1,2 Yet Its Kinda Hard To Tab Out, I Figured Out
3 In The Harmony Tho If That Helps. But Ill Try To Get The Harmony Down. But In The Mean 
Here's Pretty Much The Whole Song.So If Any Corrections, Or You Know How The Harmony
Or The Begining Of The Outro For Guitar 3. Email Me
K Later.

Avenged Sevenfold - Critical Acclaim.
Tuning - Dropped D - DADGBe
Guitar 1 - Synyster Gates
Guitar 2 - Zacky Vengence
Guitar 3 - Back Up

Guitar 1

e/-13-10---13-12~~15-17-15-13-12----13~~12~~10-12-10~~-|
B/------10-----------------------13--------------------|
G/-----------------------------------------------------|
D/-----------------------------------------------------|
A/-----------------------------------------------------|
D/-----------------------------------------------------|

Guitar 2

e/---------------------------|
B/---------------------------|
G/-------5~----3~---5~-------|
D/-0~----5~----3~---5~----0~-|
A/-0~----3~----1~---3~----0~-|
D/-0~---------------------0~-|

Guitar 1

e/-13-10---13-12~~15-17-15-13-12----13~~12~~10-12-10~~-|
B/------10-----------------------13--------------------|
G/-----------------------------------------------------|
D/-----------------------------------------------------|
A/-----------------------------------------------------|
D/-----------------------------------------------------|

Guitar 2

e/-17-13-10-17-15~~12-13-12--10-------15~~15~~13-15-13~-|
B/------------------------------13-10-------------------|
G/------------------------------------------------------|
D/------------------------------------------------------|
A/------------------------------------------------------|
D/------------------------------------------------------|

Guitar 3

e/---------------------------|
B/---------------------------|
G/-------5~----3~---5~-------|
D/-0~----5~----3~---5~----0~-|
A/-0~----3~----1~---3~----0~-|
D/-0~---------------------0~-|

Guitar 1
e/-Do this many times before he stops screaming.|
B/-17-------------------------------------------|
G/-19b------------------------------------------|
D/----------------------------------------------|
A/----------------------------------------------|
D/----------------------------------------------|

Guitar 2
e/-15-------------------------------------------|
B/-18b------------------------------------------|
G/-Do this many times before he stops screaming.|
D/----------------------------------------------|
A/----------------------------------------------|
D/----------------------------------------------|

Guitar 3
e/----------------------------------------------|
B/----------------------------------------------|
G/-Same thing do this before he stops screaming.|
D/----------------------------------------------|
A/-.-.-.-.-.-.-.-.------------------------------|
D/-0-0-0-0-0-0-0-0------------------------------|


Guitar 1

e/------------------|
B/--------------15--|
G/--------------17b-|
D/------------------|
A/-.-.-.-.-.-.------|
D/-0-0-0-0-0-0------|x7, But last time play with the whammy bar when 15-17b

Guitar 2

e/--------------15--|
B/--------------18b-|
G/------------------|
D/------------------|
A/-.-.-.-.-.-.------|
D/-0-0-0-0-0-0------|x7, But last time play with the whammy bar when 15-18b

Guitar's 2,3
         "Be quite u might piss some body off"
e/----------------|-----------|
B/----------------|-----------|
G/----------------|-----------|
D/-0--0-0-1--0--0-|-0-0-1---3-|
A/-0--0-0-1--0--0-|-0-0-1---3-|
D/-0--0-0-1--0--0-|-0-0-1---3-|x4

Guitar's 2,3
"Self rightousness is wearing thin"
e/----------------|--------------|
B/----------------|--------------|
G/----------------|-.-.-.-.------|
D/-0--0-0-1--0--0-|-0-0-0-0--1-3-|
A/-0--0-0-1--0--0-|-0-0-0-0--1-3-|
D/-0--0-0-1--0--0-|-0-0-0-0--1-3-|x4

Guitar 1
Comes at the end of the 4th time with this.
"Broken glass, your fake reflection"
e/-17---------16---------------------------------------12b--|
B/----18---------18-----------------------------------------|
G/-------19---------19------13----12---------------14-------|
D/----------19---------19------14----15-12-----15-----------|
A/------------------------------------------17--------------|
D/----------------------------------------------------------|


Guitar 1
"Telling them it's all for something real"
e/----------------------------------|
B/----------------------------------|
G/-7--7~/-9---9~/-10--7--6-6-7-9-10-|
D/-x--x~/-x---x~/-x---x--x-x-x-x-x--|
A/-5--5~/-7---7~/-8---5--4-4-5-7-8--|
D/----------------------------------|

Guitar 2

e/--------------------------|
B/--------------------------|
G/--------------------------|
D/-0~----2~----8~----6~-----|
A/-0~----3~----8~----7~-----|
D/-0~----2~----8~----4~-----|

Spoken Part

Guitar 1,2
"So how does it feel to know that someone's kid in the heart of America"
e/-----------------------------------|
B/-----------------------------------|
G/-----------------------------------|
D/-1-0------------------------1-0----|
A/-1-0-----.-.-.-.-.-.-.-.----1-0----|
D/-1-0-----0-0-0-0-0-0-0-0----1-0----|x3
Guitar 1,2
"Well where i'm from we have a special solute"
e/-----------------------|
B/-----------------------|
G/-----------------------|
D/-------------------1-0-|
A/-.-.-.-.-.-.-.-.---1-0-|
D/-0-0-0-0-0-0-0-0---1-0-|x3

Guitar 1
"Fuck you!"
e/------------------|
B/--------------15--|
G/--------------17b-|
D/------------------|
A/-.-.-.-.-.-.------|
D/-0-0-0-0-0-0------|x3, But last time play the whammy bar when 15-17b

Guitar 2

e/--------------15--|
B/--------------18b-|
G/------------------|
D/------------------|
A/-.-.-.-.-.-.------|
D/-0-0-0-0-0-0------|x3, But last time play the whammy bar when 15-18b

Guitar's 2,3
         "Be quite u might piss some body off"
e/----------------|-----------|
B/----------------|-----------|
G/----------------|-----------|
D/-0--0-0-1--0--0-|-0-0-1---3-|
A/-0--0-0-1--0--0-|-0-0-1---3-|
D/-0--0-0-1--0--0-|-0-0-1---3-|x4

Guitar's 2,3
"Tabloid gossip, we want less real"
e/----------------|--------------|
B/----------------|--------------|
G/----------------|-.-.-.-.------|
D/-0--0-0-1--0--0-|-0-0-0-0--1-3-|
A/-0--0-0-1--0--0-|-0-0-0-0--1-3-|
D/-0--0-0-1--0--0-|-0-0-0-0--1-3-|x4

Guitar 1 Comes at the end of the 4th time with this.
"Right this way, deter your own grave"
e/-17---------16---------------------------------------12b--|
B/----18---------18-----------------------------------------|
G/-------19---------19------13----12---------------14-------|
D/----------19---------19------14----15-12-----15-----------|
A/------------------------------------------17--------------|
D/----------------------------------------------------------|


Guitar 1
"Telling them it's all for something real"
e/----------------------------------|
B/----------------------------------|
G/-7--7~/-9---9~/-10--7--6-6-7-9-10-|
D/-x--x~/-x---x~/-x---x--x-x-x-x-x--|
A/-5--5~/-7---7~/-8---5--4-4-5-7-8--|
D/----------------------------------|

Guitar 2

e/--------------------------|
B/--------------------------|
G/--------------------------|
D/-0~----2~----8~----6~-----|
A/-0~----3~----8~----7~-----|
D/-0~----2~----8~----4~-----|

Spoken Part 2

Guitar 1,2
"All the way from the east to the west"
e/-----------------------------------|
B/-----------------------------------|
G/-----------------------------------|
D/-1-0------------------------1-0----|
A/-1-0-----.-.-.-.-.-.-.-.----1-0----|
D/-1-0-----0-0-0-0-0-0-0-0----1-0----|x3

Guitar 1,2
"Pointing the fingers in every direction"
e/-----------------------|
B/-----------------------|
G/-----------------------|
D/-------------------1-0-|
A/-.-.-.-.-.-.-.-.---1-0-|
D/-0-0-0-0-0-0-0-0---1-0-|x2

"They've never contributed a fucking thing"
e/--------------------------|
B/--------------------------|
G/--------------------------|
D/-------------------1-3--1~|
A/-.-.-.-.-.-.-.-.---1-3--1~|
D/-0-0-0-0-0-0-0-0---1-3--1~|

Guitar 2,3
"Excuse the unclean, ignore the untrue"
e/-----|------|-----|-----|
B/-----|------|-----|-----|
G/-7---|------|-----|-----|
D/-5---|-10---|-3---|-8---|
A/-5---|-10---|-3---|-8---|
D/-5-x4|-10-x4|-3-x4|-8-x4|
          "And many mistakes cant hurt"
e/-----------|-----|-----|----|------|-----|
B/-----------|-----|-----|----|------|-----|
G/-----------|-----|-----|----|------|-----|
D/-8-8-8-7-6-|-6---|-5---|-10-|-12---|-5---|
A/-8-8-8-7-6-|-6---|-5---|-10-|-12---|-5---|
D/-8-8-8-7-6-|-6-x4|-5-x3|-10-|-12-x4|-5-x4|

Solo

Guitar 1

e/-------------------------------15-------------------------------|
B/-/15-13-12-----13-----13-15-16-----16-13-----13/16--------------|
G/-----------12~-----12--------------------12----------15-14------|
D/------------------------------------------------------------15~-|
A/----------------------------------------------------------------|
D/----------------------------------------------------------------|

e/-------------13------------------------------------------------|
B/----------13----16-15----------13-----13b~-13b~-16-15-13-15b---|
G/-15----15-------------15----15----15---------------------------|
D/----15-------------------15------------------------------------|
A/---------------------------------------------------------------|
D/---------------------------------------------------------------|

e/-------------------17b~17-------20b-|
B/-14-15-17-18-17-18--------18p17-----|
G/------------------------------------|
D/------------------------------------|
A/------------------------------------|
D/------------------------------------|

Guitar 2

e/-----|-----|-----|-----|-----|-----|---|-----|
B/-----|-----|-----|-----|-----|-----|---|-----|
G/-----|-5---|-----|-3---|-----|-----|-5-|-----|
D/-5---|-5---|-3---|-3---|-6---|-5---|-5-|-7---|
A/-5---|-3-x4|-3---|-1-x4|-6---|-5---|-3-|-7---|
D/-5-x4|-----|-3-x4|-----|-6-x4|-5-x3|---|-7-x8|

Solo Done

Break-Down
"YEAH!"
Guitar 3
e/-----------------------------------|
B/-----------------------------------|
G/-----------------------------------|
D/-1-0------------------------1-0----|
A/-1-0-----.-.-.-.-.-.-.-.----1-0----|
D/-1-0-----0-0-0-0-0-0-0-0----1-0----|x2

Harmony
Guitar 3

e/-----------------------------------|
B/-----------------------------------|
G/-----------------------------------|
D/-1-0------------------------1-0----|
A/-1-0-----.-.-.-.-.-.-.-.----1-0----|
D/-1-0-----0-0-0-0-0-0-0-0----1-0----|

e/-----------------------|
B/-----------------------|
G/-----------------------|
D/-------------------1-0-|
A/-.-.-.-.-.-.-.-.---1-0-|
D/-0-0-0-0-0-0-0-0---1-0-|x2

e/--------------|-----|------------------------|
B/--------------|-----|------------------------|
G/--------------|-----|------------------------|
D/----------1-3-|-6-5-|------------------6-5---|
A/-.-.-.-.--1-3-|-6-5-|-.-.-.-.-.-.-.-.--6-5---|
D/-0-0-0-0--1-3-|-6-5-|-5-5-5-5-5-5-5-5--6-5-x3|

e/----------------------|
B/----------------------|
G/----------------------|
D/6-5-------------------|
A/6-5--.-.-.-.-.-.-.-.--|
D/6-5--5-5-5-5-5-5-5-5--|

e/-------|----------------------------------|
B/-------|----------------------------------|
G/-------|----------------------------------|
D/-11-10-|--------------------------11-10---|
A/-11-10-|-.--.--.--.--.--.--.--.---11-10---|
D/-11-10-|-10-10-10-10-10-10-10-10--11-10-x3|

e/--------------------------------|
B/--------------------------------|
G/--------------------------------|
D/-11-10--------------------------|
A/-11-10---.--.--.--.--.--.--.--.-|
D/-11-10--10-10-10-10-10-10-10-10-|

e/-----|------------------------|
B/-----|------------------------|
G/-----|------------------------|
D/-8-7-|------------------8-7---|
A/-8-7-|-.-.-.-.-.-.-.-.--8-7---|
D/-8-7-|-7-7-7-7-7-7-7-7--8-7-x3|

e/-----------------------|
B/-----------------------|
G/-----------------------|
D/-8-7-------------------|
A/-8-7--.-.-.-.-.-.-.-.--|
D/-8-7--7-7-7-7-7-7-7-7--|


Guitar's 2,3
"Self rightousness is wearing thin"
e/----------------|--------------|
B/----------------|--------------|
G/----------------|-.-.-.-.------|
D/-0--0-0-1--0--0-|-0-0-0-0--1-3-|
A/-0--0-0-1--0--0-|-0-0-0-0--1-3-|
D/-0--0-0-1--0--0-|-0-0-0-0--1-3-|x4

Guitar 1
Comes at the end of the 4th time with this.
"Broken glass, your fake reflection"
e/-17---------16---------------------------------------12b--|
B/----18---------18-----------------------------------------|
G/-------19---------19------13----12---------------14-------|
D/----------19---------19------14----15-12-----15-----------|
A/------------------------------------------17--------------|
D/----------------------------------------------------------|


Guitar 1
"Telling them it's all for something real"
e/----------------------------------|
B/----------------------------------|
G/-7--7~/-9---9~/-10--7--6-6-7-9-10-|
D/-x--x~/-x---x~/-x---x--x-x-x-x-x--|
A/-5--5~/-7---7~/-8---5--4-4-5-7-8--|
D/----------------------------------|

Guitar 2

e/--------------------------|
B/--------------------------|
G/--------------------------|
D/-0~----2~----8~----6~-----|
A/-0~----3~----8~----7~-----|
D/-0~----2~----8~----4~-----|

Outro-1

Guitar 3
e/----------------------------------|
B/----------------------------------|
G/-7--7~/-9---9~/-10--7--6-6-7-9-10-|
D/-x--x~/-x---x~/-x---x--x-x-x-x-x--|
A/-5--5~/-7---7~/-8---5--4-4-5-7-8--|
D/----------------------------------|

Outro-2

Guitar 1
e/-do this till song's over-----------|
B/-15---------------------------------|
G/-17b--------------------------------|
D/------------------------------------|
A/------------------------------------|
D/------------------------------------|

Guitar 2
e/-15---------------------------------|
B/-18b--------------------------------|
G/-do this till song's over-----------|
D/------------------------------------|
A/------------------------------------|
D/------------------------------------|

Guitar 3
e/-------------------------------|
B/-------------------------------|
G/-------------------------------|
D/-do this till songs over-------|
A/-.-.-.-.-.-.-.-----------------|
D/-0-0-0-0-0-0-0-----------------|

Then Done, Thats The Whole Song Except Im Missing The Harmony And The Begining Of The
So If You Know What It Is Email Me. Or Make Your Own Tab For This Song
									


911Tabs.com - tabs search engine
More "Critical Acclaim" tabs @ 911Tabs

A Guide to Tab NotationGuitar TabsGuitar ResourcesGuitar TabsPrivacy PolicyGuitar TabsContact

Online Guitar Lessons

Avenged Sevenfold Guitar Tabs - Over 200,000 chords, guitar and bass tabs with video. Find tabs, video guitar lessons and more.