Music Guitar Tab, Tabs with MP3, ringtones, ringtone, concert tickets, guitar lessons, guitar tabs easy, guitar hero

Guitar Tabs Guitar Chords Bass Tabs
 Web Guitar Tabs
Guitar Lessons
 
Lyrics abcdefghijklmnopqrstuvwxyz # Top 100 Lyrics

Guitar Tabs
Guitar Tab






click on, click off


Tab for "Burn It Down" - Avenged Sevenfold Rating 4Print Guitar Tabs
select alternative YouTube videos below...
Tweak the search term to refine the YouTube video results:         
Share on Facebook

Learn to play this song and others via online guitar lessons @ JamPlay.com!

From the album City Of Evil.


Bass (D A D G)

Q=175
4/4


   S S E  E  S S S S E  S S E     S S E  E  S S S S E  S S E   
|------------------------------|------------------------------|
|------------------------------|------------------------------|
|------------------------------|------------------------------|
|--0-0-0-----0-0-0-0-0--0-0-0--|--0-0-0-----0-0-0-0-0--0-0-0--|


   S S E  E  S S S S E  S S E     S S E  E  S S S S E  S S E   
|------------------------------|------------------------------|
|------------------------------|------------------------------|
|------------------------------|------------------------------|
|--0-0-0-----0-0-0-0-0--0-0-0--|--0-0-0-----0-0-0-0-0--0-0-0--|


   S S E  E  S S S S E  S S E     S S E  E  S S S S E  S S E   
|------------------------------|------------------------------|
|------------------------------|------------------------------|
|------------------------------|------------------------------|
|--0-0-0-----0-0-0-0-0--0-0-0--|--0-0-0-----0-0-0-0-0--0-0-0--|


   S S E  E  S S S S E  S S E     S S E  E  S S S S E  S S E   
|------------------------------|------------------------------|
|------------------------------|------------------------------|
|------------------------------|------------------------------|
|--0-0-0-----0-0-0-0-0--0-0-0--|--0-0-0-----0-0-0-0-0--0-0-0--|


   E  Q    E  E  Q    E     E  Q    E  E  Q    E     E  Q    E  E  Q    E   
|------------------------|------------------------|------------------------|
|------------------------|------------------------|------------------------|
|--3--3----3-------------|------------------------|--3--3----3-------------|
|-------------5--5----5--|--3--3----3--5--5----5--|-------------5--5----5--|


   E  Q    E  E  Q    E     E  Q    E  E  Q    E     E  Q    E  E  Q    E   
|------------------------|------------------------|------------------------|
|------------------------|------------------------|------------------------|
|------------------------|------------------------|-------------2--2----2--|
|--3--3----3--5--5----5--|--3--3----3--5--5----5--|--7--7----7-------------|


   E  Q    E  E  Q    E     E  Q    E  E  Q    E   
|------------------------|------------------------|
|------------------------|------------------------|
|--3--3----3--7--7----7--|------------------------|
|------------------------|--7--7----7--5--5----5--|


   E  S S E  S S E  S S E  S S    E  S S E  S S S S E  S S E   
|------------------------------|------------------------------|
|------------------------------|------------------------------|
|--0--0-0-1--0-0-0--0-0-3--0-0-|--0--0-0-1--0-0-0-0-0--0-0-0--|
|------------------------------|------------------------------|


   E  S S E  S S E  S S E  S S    E  S S E  S S S S E  S S E   
|------------------------------|------------------------------|
|------------------------------|------------------------------|
|--0--0-0-1--0-0-0--0-0-3--0-0-|--0--0-0-1--0-0-0-0-0--0-0-0--|
|------------------------------|------------------------------|


   E  S S E  S S E  S S E  S S    E  S S E  S S S S E  S S E   
|------------------------------|------------------------------|
|------------------------------|------------------------------|
|--0--0-0-1--0-0-0--0-0-3--0-0-|--0--0-0-1--0-0-0-0-0--0-0-0--|
|------------------------------|------------------------------|


   E  S S E  S S E  S S E  S S    E  S S E  S S E  E  E  E   
|------------------------------|----------------------------|
|------------------------------|----------------------------|
|--0--0-0-1--0-0-0--0-0-3--0-0-|--0--0-0-1--0-0-0-----------|
|------------------------------|-------------------5--3--2--|


   E  Q    E  E  Q    E     E  Q    E  E  Q    E     E  Q    E  E  Q    E   
|------------------------|------------------------|------------------------|
|------------------------|------------------------|------------------------|
|--5--5----5--5--5----5--|--4--4----4--4--4----4--|------------------------|
|------------------------|------------------------|--5--5----5--5--5----5--|


   E  E  E  E  E  E  Q       S S S S Q    S S S S Q     
|-------------------------|----------------------------|
|-------------------------|----------------------------|
|-----4--4--4--4--5--5----|----------8------------7----|
|-------------------------|--0-0-0-0------0-0-0-0------|


   S S S S  Q    S S S S Q        E  Q    E  E  Q    E   
|------------------------------|------------------------|
|------------------------------|------------------------|
|----------10------------8\----|--5--5----5--5--5----5--|
|--0-0-0-0-------0-0-0-0-------|------------------------|


   E  Q    E  E  Q    E     E  Q    E  E  Q    E     E  E  E  E  E  E  Q 
|------------------------|------------------------|------------------------|
|------------------------|------------------------|------------------------|
|--4--4----4--4--4----4--|------------------------|-----4--4--4--4--5--5---|
|------------------------|--5--5----5--5--5----5--|------------------------|


   S S S S Q    S S S S Q       S S S S  Q    S S S S Q      
|----------------------------|------------------------------|
|----------------------------|------------------------------|
|----------8------------7----|----------10------------8\----|
|--0-0-0-0------0-0-0-0------|--0-0-0-0-------0-0-0-0-------|


   Q    Q.     E  Q       Q    E  Q    E  Q      +E   Q    E  E  E  E  E   
|----------------------|-----------------------|-------------------------|
|----------------------|-----------------------|-------------------------|
|--5----5------5--5----|--3----3--3----3--1----|-(1)--1----1--1--1--1--1-|
|----------------------|-----------------------|-------------------------|


   E  E  E  E  E  E  E  E     Q    Q.     E  Q       Q    E  Q    E  Q     
|--------------------------|----------------------|-----------------------|
|--------------------------|----------------------|-----------------------|
|--3--1--0--1--0--1--1--3--|--5----5------5--5----|--3----3--3----3--1----|
|--------------------------|----------------------|-----------------------|


  +E   Q   E  E  E  E  E    S S E  E  E  S S E  E  E     Q    Q.    E  Q 
|------------------------|----------------------------|--------------------|
|------------------------|----------------------------|--------------------|
|-(1)--1---1--1--1--1--1-|----------------------------|--5----5-----5--5---|
|------------------------|--0-0-0--0--0--0-0-0--0--0--|--------------------|


   Q    E  Q   E  Q     +E   Q   E  E  E  E  E    E  E  E  E  E  E  E  E 
|---------------------|------------------------|--------------------------|
|---------------------|------------------------|--------------------------|
|--3---3--3---3--1----|-(1)--1---1--1--1--1--1-|--3--1--0--1--0--1--1--3--|
|---------------------|------------------------|--------------------------|


   Q    Q.     E  Q       Q    E  Q    E  Q      +E   Q    E  E  E  E  E   
|----------------------|-----------------------|-------------------------|
|----------------------|-----------------------|-------------------------|
|--5----5------5--5----|--3----3--3----3--1----|-(1)--1----1--1--1--1--1-|
|----------------------|-----------------------|-------------------------|


   E  E  E  E  E  E  E  E     S S E  E  E  Q   Q      E  Q.     E  Q.  
|--------------------------|-----------------------|----------------------|
|--------------------------|-----------------------|----------------------|
|--3--1--0--1--0--1--1--3--|-----------------------|----------------------|
|--------------------------|--0-0-0--0--0--0---0---|--0--5------0--8------|


   S S E  E  E  Q    Q       E  Q.     E  Q.        S S E  E  E  Q    Q     
|-------------------------|----------------------|-------------------------|
|-------------------------|----------------------|-------------------------|
|-------------------------|----------------------|-------------------------|
|--0-0-0--0--0--0----0----|--0--5------0--8------|--0-0-0--0--0--0----0----|


   E  Q.     E  Q.        S S E  E  E  Q    Q       E  Q.     E  Q.      
|----------------------|-------------------------|----------------------|
|----------------------|-------------------------|----------------------|
|----------------------|-------------------------|----------------------|
|--0--5------0--8------|--0-0-0--0--0--0----0----|--0--5------0--8------|


   E  S S E  S S E  S S E  S S    E  S S E  S S S S E  S S E   
|------------------------------|------------------------------|
|------------------------------|------------------------------|
|--0--0-0-1--0-0-0--0-0-3--0-0-|--0--0-0-1--0-0-0-0-0--0-0-0--|
|------------------------------|------------------------------|


   E  Q    E  E  Q    E     E  Q    E  E  Q    E     E  Q    E  E  Q    E   
|------------------------|------------------------|------------------------|
|------------------------|------------------------|------------------------|
|--3--3----3-------------|------------------------|--3--3----3-------------|
|-------------5--5----5--|--3--3----3--5--5----5--|-------------5--5----5--|


   E  Q    E  E  Q    E     E  Q    E  E  Q    E     E  Q    E  E  Q    E   
|------------------------|------------------------|------------------------|
|------------------------|------------------------|------------------------|
|------------------------|------------------------|-------------2--2----2--|
|--3--3----3--5--5----5--|--3--3----3--5--5----5--|--7--7----7-------------|


   E  Q    E  E  Q    E     E  Q    E  E  Q    E   
|------------------------|------------------------|
|------------------------|------------------------|
|--3--3----3--7--7----7--|------------------------|
|------------------------|--7--7----7--5--5----5--|


   E  S S E  S S E  S S E  S S    E  S S E  S S S S E  S S E   
|------------------------------|------------------------------|
|------------------------------|------------------------------|
|--0--0-0-1--0-0-0--0-0-3--0-0-|--0--0-0-1--0-0-0-0-0--0-0-0--|
|------------------------------|------------------------------|


   E  S S E  S S E  S S E  S S    E  S S E  S S S S E  S S E   
|------------------------------|------------------------------|
|------------------------------|------------------------------|
|--0--0-0-1--0-0-0--0-0-3--0-0-|--0--0-0-1--0-0-0-0-0--0-0-0--|
|------------------------------|------------------------------|   


   E  S S E  S S E  S S E  S S    E  S S E  S S S S E  S S E   
|------------------------------|------------------------------|
|------------------------------|------------------------------|
|--0--0-0-1--0-0-0--0-0-3--0-0-|--0--0-0-1--0-0-0-0-0--0-0-0--|
|------------------------------|------------------------------|


   E  S S E  S S E  S S E  S S    E  S S E  S S E  E  E  E   
|------------------------------|----------------------------|
|------------------------------|----------------------------|
|--0--0-0-1--0-0-0--0-0-3--0-0-|--0--0-0-1--0-0-0-----------|
|------------------------------|-------------------5--3--2--|


   E  Q    E  E  Q    E     E  Q    E  E  Q    E     E  Q    E  E  Q    E   
|------------------------|------------------------|------------------------|
|------------------------|------------------------|------------------------|
|--5--5----5--5--5----5--|--4--4----4--4--4----4--|------------------------|
|------------------------|------------------------|--5--5----5--5--5----5--|


   E  E  E  E  E  E  Q       S S S S Q    S S S S Q     
|-------------------------|----------------------------|
|-------------------------|----------------------------|
|-----4--4--4--4--5--5----|----------8------------7----|
|-------------------------|--0-0-0-0------0-0-0-0------|


   S S S S  Q    S S S S Q        E  Q    E  E  Q    E   
|------------------------------|------------------------|
|------------------------------|------------------------|
|----------10------------8\----|--5--5----5--5--5----5--|
|--0-0-0-0-------0-0-0-0-------|------------------------|


   E  Q    E  E  Q    E     E  Q    E  E  Q    E     E  E  E  E  E  E  Q   
|------------------------|------------------------|------------------------|
|------------------------|------------------------|------------------------|
|--4--4----4--4--4----4--|------------------------|-----4--4--4--4--5--5---|
|------------------------|--5--5----5--5--5----5--|------------------------|


   S S S S Q    S S S S Q       S S S S  Q    S S S S Q      
|----------------------------|------------------------------|
|----------------------------|------------------------------|
|----------8------------7----|----------10------------8\----|
|--0-0-0-0------0-0-0-0------|--0-0-0-0-------0-0-0-0-------|


   Q    Q.     E  Q       Q    E  Q    E  Q      +E   Q    E  E  E  E  E   
|----------------------|-----------------------|-------------------------|
|----------------------|-----------------------|-------------------------|
|--5----5------5--5----|--3----3--3----3--1----|-(1)--1----1--1--1--1--1-|
|----------------------|-----------------------|-------------------------|


   E  E  E  E  E  E  E  E     Q    Q    Q    Q       Q    Q    Q    Q     
|--------------------------|----------------------|----------------------|
|--------------------------|----------------------|----------------------|
|--3--1--0--1--0--1--1--3--|--5----5----5----5----|--7----7----7----8----|
|--------------------------|----------------------|----------------------|


   Q    Q    Q     Q        Q    Q    Q    Q      +W                 
|-----------------------|-----------------------|-------------------|
|-----------------------|-----------------------|-------------------|
|--8----8----8----10----|--10----5----5----4----|-(4)---------------|
|-----------------------|-----------------------|-------------------|


  +W                   Q    Q.     E  Q       Q    E  Q    E  Q     
|-------------------|----------------------|-----------------------|
|-------------------|----------------------|-----------------------|
|-(4)---------------|--5----5------5--5----|--3----3--3----3--1----|
|-------------------|----------------------|-----------------------|


  +E   Q   E  E  E  E  E    E  E  E  E  E  E  E  E     Q    Q    Q    Q    
|------------------------|--------------------------|---------------------|
|------------------------|--------------------------|---------------------|
|-(1)--1---1--1--1--1--1-|--3--1--0--1--0--1--1--3--|--5----5----5----5---|
|------------------------|--------------------------|---------------------|


   Q    Q    Q    Q       Q    Q    Q     Q        Q    Q    Q    Q     
|----------------------|-----------------------|-----------------------|
|----------------------|-----------------------|-----------------------|
|--7----7----7----8----|--8----8----8----10----|--10----5----5----4----|
|----------------------|-----------------------|-----------------------|


   Q    H        Q       Q.     Q.     Q      +W                 
|---------------------|---------------------|-------------------|
|---------------------|---------------------|-------------------|
|--5----5--------5----|--3------3------1----|-(1)---------------|
|---------------------|---------------------|-------------------|


  +W                 W    W    W      H         H          
|-------------------|----|----|----|----------------------|
|-------------------|----|----|----|-----------/8~--------|
|-(1)---------------|----|----|----|----------------------|
|-------------------|----|----|----|----------------------|


   S S E  E  E  E  Q.      S S E  E  E  E  Q.       S S E  E  E  E  Q.   
|-----------------------|------------------------|-------------------------|
|-----------------------|------------------------|-------------------------|
|-----------------------|------------------------|-------------------------|
|--0-0-0--0--0--0-------|--0-0-0--0--0--0--------|--0-0-0--0--0--0---------|


 W       S S E  E  E  E  Q.        S S E  E  E  E  Q.      
|-----|-------------------------|-------------------------|
|-----|-------------------------|-------------------------|
|-----|-------------------------|-------------------------|
|-----|--0-0-0--0--0--0---------|--0-0-0--0--0--0---------|


   S S E  E  E  E  Q.      W       S S E  E  E  E  E  E  E   
|-------------------------|-----|---------------------------|
|-------------------------|-----|---------------------------|
|-------------------------|-----|---------------------------|
|--0-0-0--0--0--0---------|-----|--0-0-0--0--0--0-----0-----|


   E  Q.     E  Q.        S S E  E  E  E  E  E  E     E  Q.     E  Q.      
|----------------------|---------------------------|----------------------|
|----------------------|---------------------------|----------------------|
|----------------------|---------------------------|----------------------|
|--0--5------0--8------|--0-0-0--0--0--0-----0-----|--0--5------0--8------|


   S S E  E  E  E  E  E  E     E  Q.     E  Q.      S S E  E  E  E E  E E
|---------------------------|--------------------|-------------------------|
|---------------------------|--------------------|-------------------------|
|---------------------------|--------------------|-------------------------|
|--0-0-0--0--0--0-----0-----|--0--5-----0--8-----|--0-0-0--0--0--0----0----|


   E  Q.     E  Q.      E  E  E  E  E  E  E  E     E  E  E  E  E  E  E  E  
|--------------------|--------------------------|--------------------------|
|--------------------|--------------------------|--------------------------|
|--------------------|--------------------------|--------------------0--0--|
|--0--5-----0--8-----|--3--3--3--3--3--3--3--3--|--5--5--5--5--5--5--------|


   E  E  E  E  E  E  E  E    E  E  Q    E  E  Q     E  E  E  E  E  E  E  E
|-------------------------|----------------------|-------------------------|
|-------------------------|----------------------|-------------------------|
|--0--0--0--0--0--0--0--0-|--2--2--2---2--2--2---|--3--3--3--3--3--3--3--3-|
|-------------------------|----------------------|-------------------------|


   E  E  E  E  E  E  E  E     E  E  E  E  E  E  E  E   
|--------------------------|--------------------------|
|--------------------------|--------------------------|
|--7--7--7--7--7--7--------|--------------------------|
|--------------------7--7--|--7--7--7--7--7--7--5--5--|


   E  E  E  E  E  E  E  E     E  E  E  E  E  E  E  E   
|--------------------------|--------------------------|
|--------------------------|--------------------------|
|--------------------------|--------------------------|
|--5--5--5--5--5--5--5--5--|--3--3--3--3--3--3--3--3--|


  E  E  E  E  E  E  E  E     E  E  E  E  E  E  E  E    E  E  Q   E  E  Q  
|-------------------------|-------------------------|----------------------|
|-------------------------|-------------------------|----------------------|
|--------------------0--0-|--0--0--0--0--0--0--0--0-|--2--2--2---2--2--2---|
|--5--5--5--5--5--5-------|-------------------------|----------------------|


   E  E  E  E  E  E  E  E     E  E  E  E  E  E  E  E   
|--------------------------|--------------------------|
|--------------------------|--------------------------|
|--3--3--3--3--3--3--3--3--|--7--7--7--7--7--7--------|
|--------------------------|--------------------7--7--|


   E  E  E  E  E  E  E  E     E  E  E  E  E  E  E  E   
|--------------------------|--------------------------|
|--------------------------|--------------------------|
|--------------------------|--------------------------|
|--7--7--7--7--7--7--5--5--|--5--5--5--5--5--5--5--5--|


   E  E  E  E  E  E  E  E     E  E  E  E  E  E  E  E   
|--------------------------|--------------------------|
|--------------------------|--------------------------|
|--------------------------|--------------------0--0--|
|--3--3--3--3--3--3--3--3--|--5--5--5--5--5--5--------|


   E  E  E  E  E  E  E  E    E  E  Q   E  E  Q      E  E  E  E  E  E  E  E
|-------------------------|----------------------|-------------------------|
|-------------------------|----------------------|-------------------------|
|--0--0--0--0--0--0--0--0-|--2--2--2---2--2--2---|--3--3--3--3--3--3--3--3-|
|-------------------------|----------------------|-------------------------|


   E  E  E  E  E  E  E  E     E  E  E  E  E  E  E  E   
|--------------------------|--------------------------|
|--------------------------|--------------------------|
|--7--7--7--7--7--7--------|--------------------------|
|--------------------7--7--|--7--7--7--7--7--7--5--5--|


   E  E  E  E  E  E  E  E     E  E  E  E  E  E  E  E   
|--------------------------|--------------------------|
|--------------------------|--------------------------|
|--------------------------|--------------------------|
|--5--5--5--5--5--5--5--5--|--3--3--3--3--3--3--3--3--|


   E  E  E  E  E  E  E  E    E  E  E  E  E  E  E  E    E  E  Q   E  E  Q 
|-------------------------|-------------------------|----------------------|
|-------------------------|-------------------------|----------------------|
|--------------------0--0-|--0--0--0--0--0--0--0--0-|--2--2--2---2--2--2---|
|--5--5--5--5--5--5-------|-------------------------|----------------------|


   E  E  E  E  E  E  E  E     E  E  E  E  E  E  E  E   
|--------------------------|--------------------------|
|--------------------------|--------------------------|
|--3--3--3--3--3--3--3--3--|--7--7--7--7--7--7--------|
|--------------------------|--------------------7--7--|


   E  S S E  S S E  S S E  S S    E  S S E  S S S S E  S S E   
|------------------------------|------------------------------|
|------------------------------|------------------------------|
|--0--0-0-1--0-0-0--0-0-3--0-0-|--0--0-0-1--0-0-0-0-0--0-0-0--|
|------------------------------|------------------------------|


   E  S S E  S S E  S S E  S S    E  S S E  S S S S E  S S E   
|------------------------------|------------------------------|
|------------------------------|------------------------------|
|--0--0-0-1--0-0-0--0-0-3--0-0-|--0--0-0-1--0-0-0-0-0--0-0-0--|
|------------------------------|------------------------------|


   E  S S E  S S E  S S E  S S    E  S S E  S S S S E  S S E   
|------------------------------|------------------------------|
|------------------------------|------------------------------|
|--0--0-0-1--0-0-0--0-0-3--0-0-|--0--0-0-1--0-0-0-0-0--0-0-0--|
|------------------------------|------------------------------|



   E  S S E  S S E  S S E  S S    E  S S E  S S E  E  E  E   
|------------------------------|----------------------------|
|------------------------------|----------------------------|
|--0--0-0-1--0-0-0--0-0-3--0-0-|--0--0-0-1--0-0-0-----------|
|------------------------------|-------------------5--3--2--|


   E  Q    E  E  Q    E     E  Q    E  E  Q    E     E  Q    E  E  Q    E   
|------------------------|------------------------|------------------------|
|------------------------|------------------------|------------------------|
|--5--5----5--5--5----5--|--4--4----4--4--4----4--|------------------------|
|------------------------|------------------------|--5--5----5--5--5----5--|


   E  E  E  E  E   E  Q     W         H        E.  E.  E   
|--------------------------|-------|----------------------|
|--------------------------|-------|----------------------|
|-----4--4--4--4s--5--5----|-------|----------------------|
|--------------------------|-------|-----------8---8---8--|


   Q    Q.     E  Q       Q    E  Q    E  Q      +E  Q    E  E  E  E  E   
|----------------------|-----------------------|-------------------------|
|----------------------|-----------------------|-------------------------|
|--5----5------5--5----|--3----3--3----3--1----|-(1)-1----1--1--1--1--1--|
|----------------------|-----------------------|-------------------------|


   E  E  E  E  E  E  E  E     Q    Q    Q    Q       Q    Q    Q    Q     
|--------------------------|----------------------|----------------------|
|--------------------------|----------------------|----------------------|
|--3--1--0--1--0--1--1--3--|--5----5----5----5----|--7----7----7----8----|
|--------------------------|----------------------|----------------------|


  Q    Q    Q     Q        Q    Q    Q    Q       +W                 
|-----------------------|-----------------------|-------------------|
|-----------------------|-----------------------|-------------------|
|--8----8----8----10----|--10----5----5----4----|-(4)---------------|
|-----------------------|-----------------------|-------------------|


  +W                   Q    Q.     E  Q       Q    E  Q    E  Q     
|-------------------|----------------------|-----------------------|
|-------------------|----------------------|-----------------------|
|-(4)---------------|--5----5------5--5----|--3----3--3----3--1----|
|-------------------|----------------------|-----------------------|


  +E  Q     E  E  E  E  E    E  E  E  E  E  E  E  E     Q    Q    Q    Q  
|-------------------------|--------------------------|---------------------|
|-------------------------|--------------------------|---------------------|
|-(1)--1----1--1--1--1--1-|--3--1--0--1--0--1--1--3--|--5----5----5----5---|
|-------------------------|--------------------------|---------------------|


   Q    Q    Q    Q       Q    Q    Q     Q        Q    Q    Q    Q     
|----------------------|-----------------------|-----------------------|
|----------------------|-----------------------|-----------------------|
|--7----7----7----8----|--8----8----8----10----|--10----5----5----4----|
|----------------------|-----------------------|-----------------------|


   Q    H        Q       Q.     Q.     Q      +W                 
|---------------------|---------------------|-------------------|
|---------------------|---------------------|-------------------|
|--5----5--------5----|--3------3------1----|-(1)---------------|
|---------------------|---------------------|-------------------|


  +W                   Q    E  Q    Q    E    +E   E  Q    Q    E  E   
|-------------------|-----------------------|------------------------|
|-------------------|-----------------------|------------------------|
|-(1)---------------|-----------------------|------------------------|
|-------------------|--5----5--5----5----3--|-(3)--3--3----3----3--3-|


   Q    E  Q    E  Q       E  E  Q    H           Q    E  Q    Q    E   
|-----------------------|----------------------|-----------------------|
|-----------------------|----------------------|-----------------------|
|-----------------------|----------------------|-----------------------|
|--7----7--7----7--8----|--8--8--8----8--------|--5----5--5----5----3--|


  +E   E  Q    Q    E  E    W                  +W                 
|------------------------|-------------------|-------------------|
|------------------------|-------------------|-------------------|
|------------------------|-------------------|-------------------|
|-(3)--3--3----3----3--3-|--0----------------|-(0)---------------|


  Q    E  Q    Q    E     +E   E  Q    Q    E  E    Q    E  Q    E  Q     
|-----------------------|------------------------|-----------------------|
|-----------------------|------------------------|-----------------------|
|-----------------------|------------------------|-----------------------|
|--5----5--5----5----3--|-(3)--3--3----3----3--3-|--7----7--7----7--8----|


   Q    E  Q    Q    E    +E   E  Q    Q    E  E   +E   E  Q    Q    E  E  
|-----------------------|------------------------|------------------------|
|-----------------------|------------------------|------------------------|
|-----------------------|------------------------|------------------------|
|--5----5--5----5----3--|-(3)--3--3----3----3--3-|-(3)--3--3----3----3--3-|


                      Fade out.
   Q.     Q.     Q       +W                                    
|---------------------|-------------------||
|---------------------|-------------------||
|--0------0------1----|--(1)--------------||
|---------------------|-------------------||




Duration Legend
---------------
W - whole
H - half
Q - quarter
E - 8th
S - 16th
T - 32nd
X - 64th
. - note dotted
|-n-|  - n-tuplets


Tablature Legend
----------------
s - slide
h - hammer on
p - pull off

Enjoy!
									


911Tabs.com - tabs search engine
More "Burn It Down" tabs @ 911Tabs

A Guide to Tab NotationGuitar TabsGuitar ResourcesGuitar TabsPrivacy PolicyGuitar TabsContact

Online Guitar Lessons

Avenged Sevenfold Guitar Tabs - Over 200,000 chords, guitar and bass tabs with video. Find tabs, video guitar lessons and more.