Music Guitar Tab, Tabs with MP3, ringtones, ringtone, concert tickets, guitar lessons, guitar tabs easy, guitar hero

Guitar Tabs Guitar Chords Bass Tabs
 Web Guitar Tabs
Guitar Lessons
 
Lyrics abcdefghijklmnopqrstuvwxyz # Top 100 Lyrics

Guitar Tabs
Guitar Tab






click on, click off


Tab for "Burn It Down" - Avenged Sevenfold Rating 4Print Guitar Tabs
select alternative YouTube videos below...
Tweak the search term to refine the YouTube video results:         
Share on Facebook

Learn to play this song and others via online guitar lessons @ JamPlay.com!

BURN IT DOWN
Avenged Sevenfold

Gtr I (D A D G B E) - 'Right Ear '
Gtr II (D A D G B E) - 'Left Ear'
Gtr III (D A D G B E) - 'Neutral'
Gtr IV (D A D G B E) - 'Solo Guitar '

   Intro
    Q=175
    D5
   4/4
    Gtr III
    PM----------------------------------------------|
    S S E E S S S S E S S E   S S E E S S S S E S S E   4x
||--------------------------|---------------------------||
||o-------------------------|--------------------------o||
||--------------------------|---------------------------||
||--------------------------|---------------------------||
||o-0-0-0---0-0-0-0-0-0-0-0-|-0-0-0---0-0-0-0-0-0-0-0--o||
||--0-0-0---0-0-0-0-0-0-0-0-|-0-0-0---0-0-0-0-0-0-0-0---||


   Lead Harmony
    $
    C5           G5             F5           G5
   4/4
    Gtr I
     E  E  E   E  E  E  E   E    E  E  E   E  E  E  E   E
||--12--------12-10--------10-|-12--------12-13-10-----13--||
||o-------13-----------12-----|-------13-----------12-----o||
||-----12-----------12--------|----14----------------------||
||----------------------------|----------------------------||
||o---------------------------|---------------------------o||
||----------------------------|----------------------------||
|
|   Gtr II
|    E  E  E   E  E  E  E   E    E  E  E   E  E  E  E   E
||---8---------8--7---------7-|--8---------8-10--7-----10--||
||o-------10------------8-----|-------10------------8-----o||
||------9------------9--------|----10----------------------||
||----------------------------|----------------------------||
||o---------------------------|---------------------------o||
||----------------------------|----------------------------||
|
|   Gtr III
|    E  E +E   E  E  E +E   E    E  E +E   E  E  E +E   E
||----------------------------|----------------------------||
||o---------------------------|---------------------------o||
||---5--5-(5)--5--------------|----------------------------||
||---5--5-(5)--5--5--5-(5)--5-|--3--3-(3)--3--5--5-(5)--5--||
||o--3--3-(3)--3--5--5-(5)--5-|--3--3-(3)--3--5--5-(5)--5-o||
||----------------5--5-(5)--5-|--3--3-(3)--3--5--5-(5)--5--||


  F5           G5             A5           G/B
   E  E  E   E  E  E  E   E    E  E  E   E  E  E  E   E
|--------------10----13--10-|-12--------12-13--------17--|
|-13--------13----12--------|-------13--------12-15------|
|-------14------------------|----14----------------------|
|----14---------------------|----------------------------|
|---------------------------|----------------------------|
|---------------------------|----------------------------|
|
|  E  E  E   E  E  E  E   E    E  E  E   E  E  E  E   E
|--------------------10-----|--------------10--------13--|
|-10--------10-12--------12-|-13--------13-------12------|
|-------10--------12--------|-------14--------12---------|
|----10---------------------|----14----------------------|
|---------------------------|----------------------------|
|---------------------------|----------------------------|
|
|  E  E +E   E  E  E +E   E    E  E +E   E  E  E +E   E
|---------------------------|----------------------------|
|---------------------------|----------------------------|
|---------------------------|---------------4--4-(4)--4--|
|--3--3-(3)--3--5--5-(5)--5-|--7--7-(7)--7--5--5-(5)--5--|
|--3--3-(3)--3--5--5-(5)--5-|--7--7-(7)--7--2--2-(2)--2--|
|--3--3-(3)--3--5--5-(5)--5-|--7--7-(7)--7---------------|


  C5           E5              A5           G5
   E  E  E   E  E  E   E   E    E  E  E   E  E  E  E   E
|-15--------15--------15-----|---------------------------|
|-------17-----17---------17-|-13--------13-12--------12-|
|----17-----------17---------|-------14-----------12-----|
|----------------------------|----14-----------14--------|
|----------------------------|---------------------------|
|----------------------------|---------------------------|
|
|  E  E  E   E  E  E   E   E    E  E  E   E  E  E  E   E
|-12--------12-15-12-/19--15-|-17------------------------|
|-------13-------------------|-----------17-15--------15-|
|----12----------------------|-------17-----------16-----|
|----------------------------|----19-----------17--------|
|----------------------------|---------------------------|
|----------------------------|---------------------------|
|
|  E  E +E   E  E  E  +E   E    E  E +E   E  E  E +E   E
|----------------------------|---------------------------|
|----------------------------|---------------------------|
|--5--5-(5)--5--9--9--(9)--9-|---------------------------|
|--5--5-(5)--5--9--9--(9)--9-|--7--7-(7)--7--5--5-(5)--5-|
|--3--3-(3)--3--7--7--(7)--7-|--7--7-(7)--7--5--5-(5)--5-|
|----------------------------|--7--7-(7)--7--5--5-(5)--5-|


 Verse
  A5     Bb5   A5    C5      A5    Bb5       A5
   ~~
   W                         W
|--------------------------|-------------------------|
|--------------------------|-------------------------|
|-14-----------------------|-------------------------|
|--------------------------|-------------------------|
|--------------------------|-------------------------|
|--------------------------|-------------------------|
|
|  ~~
|  W                         W
|--------------------------|-------------------------|
|--------------------------|-------------------------|
|-17-----------------------|-------------------------|
|--------------------------|-------------------------|
|--------------------------|-------------------------|
|--------------------------|-------------------------|
|
| Gtr III
|    PM|   PM|   PM|   PM|     PM|   PM----|   PM|
|  E S S E S S E S S E S S   E S S E S S S S E S S E
|--------------------------|-------------------------|
|--------------------------|-------------------------|
|--2-----3-----2-----5-----|-2-----3---------2-----2-|
|--2-----3-----2-----5-----|-2-----3---------2-----2-|
|--0-0-0-1-0-0-0-0-0-3-0-0-|-0-0-0-1-0-0-0-0-0-0-0-0-|
|--------------------------|-------------------------|


    A5    Bb5   A5    C5      A5    Bb5       A5
    Gtr III
      PM|   PM|   PM|   PM|     PM|   PM----|   PM|
    E S S E S S E S S E S S   E S S E S S S S E S S E
||--------------------------|--------------------------||
||o-------------------------|-------------------------o||
||--2-----3-----2-----5-----|-2-----3---------2-----2--||
||--2-----3-----2-----5-----|-2-----3---------2-----2--||
||o-0-0-0-1-0-0-0-0-0-3-0-0-|-0-0-0-1-0-0-0-0-0-0-0-0-o||
||--------------------------|--------------------------||


  A5    Bb5   A5    C5      A5    Bb5   N.C.
  Gtr III
    PM|   PM|   PM|   PM|     PM|   PM|
  E S S E S S E S S E S S   E S S E S S E E E E
|-------------------------|---------------------|
|-------------------------|---------------------|
|-2-----3-----2-----5-----|-2-----3-------------|
|-2-----3-----2-----5-----|-2-----3-------------|
|-0-0-0-1-0-0-0-0-0-3-0-0-|-0-0-0-1-0-0-0-------|
|-------------------------|---------------5-3-2-|


   Chorus
    D5                    A/C#
    Gtr I
    E E +E  E E E +E  E   E E +E  E  E  E  E   E
||----------------------|------------------------|
||o---------------------|------------------------|
||--7-7-(7)-7-7-7-(7)-7-|-6-6-(6)-6-14-14-14--14-|
||--7-7-(7)-7-7-7-(7)-7-|-7-7-(7)-7--x--x--x---x-|
||o-5-5-(5)-5-5-5-(5)-5-|-4-4-(4)-4-12-12-12--12-|
||----------------------|------------------------|
|
|   Gtr II
|   E E +E  E E E +E  E   E E +E  E  E  E +E   E
||----------------------|------------------------|
||o---------------------|------------------------|
||--7-7-(7)-7-7-7-(7)-7-|-6-6-(6)-6--6--6-(6)--6-|
||--7-7-(7)-7-7-7-(7)-7-|-7-7-(7)-7--7--7-(7)--7-|
||o-5-5-(5)-5-5-5-(5)-5-|-4-4-(4)-4--4--4-(4)--4-|
||----------------------|------------------------|


  G5                            C#m         Dm
   E  E  E   E  E  E  E   E   E  E  E  E  E  E  Q
|---------------------------|-----------------------|
|---------------------------|-----------------------|
|-15-15-15--15-15-15-15--15-|---18-18-18-18s19-19---|
|--x--x--x---x--x--x--x---x-|----x--x--x--x--x--x---|
|-13-13-13--13-13-13-13--13-|---16-16-16-16s17-17---|
|---------------------------|-----------------------|
|
|  E  E +E   E  E  E +E   E   E  E  E  E  E  E  Q
|---------------------------|-----------------------|
|---------------------------|-----------------------|
|---------------------------|-----------------------|
|--5--5-(5)--5--5--5-(5)--5-|----2--2--2--2--3--3---|
|--5--5-(5)--5--5--5-(5)--5-|----4--4--4--4s=5--5---|
|--5--5-(5)--5--5--5-(5)--5-|-----------------------|


  D5      F  D5      E    D5      G   D5      F
  PM----| ~  PM----| ~    PM----|  ~~ PM----|
  S S S S Q  S S S S Q    S S S S  Q  S S S S Q
|-----------------------|--------------------------||
|-----------------------|-------------------------o||
|-----------------------|--------------------------||
|-----------------------|--------------------------||
|-0-0-0-0-8--0-0-0-0-7--|-0-0-0-0-10--0-0-0-0-8\--o||
|-0-0-0-0----0-0-0-0----|-0-0-0-0-----0-0-0-0------||
|
| PM----| ~  PM----| ~    PM----|  ~~ PM----|
| S S S S Q  S S S S Q    S S S S  Q  S S S S Q
|-----------------------|--------------------------||
|-----------------------|-------------------------o||
|-----------------------|--------------------------||
|-----------------------|--------------------------||
|-0-0-0-0-8--0-0-0-0-7--|-0-0-0-0-10--0-0-0-0-8\--o||
|-0-0-0-0-7--0-0-0-0-7--|-0-0-0-0--8--0-0-0-0-7----||


 Verse
                                                               To Coda
  D5              C5         Bb5
  Gtr III
   Q   H     Q     Q.   Q.    Q     +Q    H      Q     +Q    H      Q
|---------------|----------------|------------------|------------------|
|---------------|----------------|------------------|------------------|
|--7---7-----7--|--5----5-----3--|--(3)---3------3--|--(3)---3------3--|
|--7---7-----7--|--5----5-----3--|--(3)---3------3--|--(3)---3------3--|
|--5---5-----5--|--3----3-----1--|--(1)---1------1--|--(1)---1------1--|
|---------------|----------------|------------------|------------------|
|
| Gtr II
|  Q   H     Q     Q.   Q.    Q     +Q    Q  Q   Q     +Q    H.
|---------------|----------------|------------------|------------------|
|---------------|----------------|------------------|------------------|
|-10--10----10--|--9----5-----9--|--(9)--10--7---7--|--(7)---7---------|
|--x---x-----x--|--x----x-----x--|--(x)---x--x---x--|--(x)---x---------|
|--8---8-----8--|--7----3-----7--|--(7)---8--5---5--|--(5)---5---------|
|---------------|----------------|------------------|------------------|
|
| Gtr I
|  Q   H     Q     Q.   Q.    Q     +Q    H      Q     +Q    H      Q
|---------------|----------------|------------------|------------------|
|---------------|----------------|------------------|------------------|
|-14--14----14--|-12----9----10--|-(10)--10-----10--|-(10)--10-----10--|
|--x---x-----x--|--x----x-----x--|--(x)---x------x--|--(x)---x------x--|
|-12--12----12--|-10----7-----8--|--(8)---8------8--|--(8)---8------8--|
|---------------|----------------|------------------|------------------|


  D5              C5          Bb5
   Q   H     Q     Q.    Q.    Q     +Q    H      Q
|---------------|-----------------|------------------|
|---------------|-----------------|------------------|
|--7---7-----7--|--5-----5-----3--|--(3)---3------3--|
|--7---7-----7--|--5-----5-----3--|--(3)---3------3--|
|--5---5-----5--|--3-----3-----1--|--(1)---1------1--|
|---------------|-----------------|------------------|
|
|  Q   H     Q     Q.    Q.    Q     +Q    Q  Q   Q
|---------------|-----------------|------------------|
|---------------|-----------------|------------------|
|-10--10----10--|--9-----5-----9--|--(9)--10--7---7--|
|--x---x-----x--|--x-----x-----x--|--(x)---x--x---x--|
|--8---8-----8--|--7-----3-----7--|--(7)---8--5---5--|
|---------------|-----------------|------------------|
|
|  Q   H     Q     Q.    Q.    Q     +Q    H      Q
|---------------|-----------------|------------------|
|---------------|-----------------|------------------|
|-14--14----14--|-12----12----10--|-(10)--10-----10--|
|--x---x-----x--|--x-----x-----x--|--(x)---x------x--|
|-12--12----12--|-10----10-----8--|--(8)---8------8--|
|---------------|-----------------|------------------|


  D5
  Gtrs I, II
  PM------------------|
  S S E E E S S E S S E
|-----------------------|
|-----------------------|
|-----------------------|
|-----------------------|
|-0-0-0-0-0-0-0-0-0-0-0-|
|-0-0-0-0-0-0-0-0-0-0-0-|


  D5              C5         Bb5
  Gtr III
   Q   H     Q     Q.   Q.    Q     +Q    H      Q     +Q    H      Q
|---------------|----------------|------------------|------------------|
|---------------|----------------|------------------|------------------|
|--7---7-----7--|--5----5-----3--|--(3)---3------3--|--(3)---3------3--|
|--7---7-----7--|--5----5-----3--|--(3)---3------3--|--(3)---3------3--|
|--5---5-----5--|--3----3-----1--|--(1)---1------1--|--(1)---1------1--|
|---------------|----------------|------------------|------------------|
|
| Gtr II
|  Q   H     Q     Q.   Q.    Q     +Q    Q  Q   Q     +Q    H.
|---------------|----------------|------------------|------------------|
|---------------|----------------|------------------|------------------|
|-10--10----10--|--9----5-----9--|--(9)--10--7---7--|--(7)---7---------|
|--x---x-----x--|--x----x-----x--|--(x)---x--x---x--|--(x)---x---------|
|--8---8-----8--|--7----3-----7--|--(7)---8--5---5--|--(5)---5---------|
|---------------|----------------|------------------|------------------|
|
| Gtr I
|  Q   H     Q     Q.   Q.    Q     +Q    H      Q     +Q    H      Q
|---------------|----------------|------------------|------------------|
|---------------|----------------|------------------|------------------|
|-14--14----14--|-12----9----10--|-(10)--10-----10--|-(10)--10-----10--|
|--x---x-----x--|--x----x-----x--|--(x)---x------x--|--(x)---x------x--|
|-12--12----12--|-10----7-----8--|--(8)---8------8--|--(8)---8------8--|
|---------------|----------------|------------------|------------------|


  D5              C5         Bb5
  Gtr III
   Q   H     Q     Q.   Q.    Q     +Q    H      Q     +Q    +H      +Q
|---------------|----------------|------------------|---------------------|
|---------------|----------------|------------------|---------------------|
|--7---7-----7--|--5----5-----3--|--(3)---3------3--|--(3)---(3)-----(3)--|
|--7---7-----7--|--5----5-----3--|--(3)---3------3--|--(3)---(3)-----(3)--|
|--5---5-----5--|--3----3-----1--|--(1)---1------1--|--(1)---(1)-----(1)--|
|---------------|----------------|------------------|---------------------|
|
| Gtr II
|  Q   H     Q     Q.   Q.    Q     +Q    Q  Q   Q     +Q    +H.
|---------------|----------------|------------------|---------------------|
|---------------|----------------|------------------|---------------------|
|-10--10----10--|--9----5-----9--|--(9)--10--7---7--|--(7)---(7)----------|
|--x---x-----x--|--x----x-----x--|--(x)---x--x---x--|--(x)---(x)----------|
|--8---8-----8--|--7----3-----7--|--(7)---8--5---5--|--(5)---(5)----------|
|---------------|----------------|------------------|---------------------|
|
| Gtr I
|  Q   H     Q     Q.   Q.    Q     +Q    H      Q     +Q    +H      +Q
|---------------|----------------|------------------|---------------------|
|---------------|----------------|------------------|---------------------|
|-14--14----14--|-12----9----10--|-(10)--10-----10--|-(10)--(10)----(10)--|
|--x---x-----x--|--x----x-----x--|--(x)---x------x--|--(x)---(x)-----(x)--|
|-12--12----12--|-10----7-----8--|--(8)---8------8--|--(8)---(8)-----(8)--|
|---------------|----------------|------------------|---------------------|


   Breakdown
    N.C.      D5        N.C.
    Gtrs I, II
    PM------|         PM~~   PM~~
    S S E E E q  q    E Q.   E Q.    4x
||------------------|----------------||
||o-----------------|---------------o||
||------------------|----------------||
||------------------|----------------||
||o-----------0--0--|---------------o||
||--0-0-0-0-0-0--0--|-0-5----0-8-----||


                                      D.S. al Coda
  A5    Bb5   A5    C5      A5    Bb5       A5
  Gtr II
    PM|   PM|   PM|   PM|     PM|   PM----|   PM|
  E S S E S S E S S E S S   E S S E S S S S E S S E
|-------------------------|-------------------------|
|-------------------------|-------------------------|
|-2-----3-----2-----5-----|-2-----3---------2-----2-|
|-2-----3-----2-----5-----|-2-----3---------2-----2-|
|-0-0-0-1-0-0-0-0-0-3-0-0-|-0-0-0-1-0-0-0-0-0-0-0-0-|
|-------------------------|-------------------------|
|
| Gtr I
|                                           PM    PM
| W                         H           E   E E   E
|-------------------------|-------------------------|
|-------------------------|-------------------------|
|-------------------------|-----------------2-----2-|
|-------------------------|-----------------2-----2-|
|-------------------------|-----------------0-----0-|
|-------------------------|-------------------------|


  &
  N.C.
  Gtr II
   E  E  E  E  E  E  E  E    E  E  E  E  E  E  E  E
|-------------------------|-------------------------|
|-------------------------|-------------------------|
|-10-10-10-10-10-10-10-10-|-12-12-12-12-12-12-14-14-|
|--x--x--x--x--x--x--x--x-|--x--x--x--x--x--x--x--x-|
|--8--8--8--8--8--8--8--8-|-10-10-10-10-10-10-12-12-|
|-------------------------|-------------------------|
|
| Gtr III
|  E  E  E  E  E  E  E  E    E  E  E  E  E  E  E  E
|-------------------------|-------------------------|
|-------------------------|-------------------------|
|--7--7--7--7--7--7--7--7-|--9--9--9--9--9--9-10-10-|
|--x--x--x--x--x--x--x--x-|--x--x--x--x--x--x--x--x-|
|--5--5--5--5--5--5--5--5-|--7--7--7--7--7--7--8--8-|
|-------------------------|-------------------------|


                                                                 >
   E  E  E  E  E  E  E  E    E  E  E  E  E  E Q    +W           +W
|-------------------------|----------------------|------------|--------|
|-------------------------|----------------------|------------|--------|
|-14-14-14-14-14-14-15-15-|-15-15-10-10-10-10-9--|-(9)--------|-(9)----|
|--x--x--x--x--x--x--x--x-|--x--x--x--x--x--x-x--|-(x)--------|-(x)----|
|-12-12-12-12-12-12-13-13-|-13-13--8--8--8--8-7--|-(7)--------|-(7)----|
|-------------------------|----------------------|------------|--------|
|
|                                                                >
|  E  E  E  E  E  E  E  E    E  E  E  E  E  E Q    +W           +W
|-------------------------|----------------------|------------|--------|
|-------------------------|----------------------|------------|--------|
|-10-10-10-10-10-10-12-12-|-12-12--7--7--7--7-6--|-(6)--------|-(6)----|
|--x--x--x--x--x--x--x--x-|--x--x--x--x--x--x-x--|-(x)--------|-(x)----|
|--8--8--8--8--8--8-10-10-|-10-10--5--5--5--5-4--|-(4)--------|-(4)----|
|-------------------------|----------------------|------------|--------|


  D5              C5         Bb5
  Gtr III
   Q   H     Q     Q.   Q.    Q     +Q    H      Q     +Q    H      Q
|---------------|----------------|------------------|------------------|
|---------------|----------------|------------------|------------------|
|--7---7-----7--|--5----5-----3--|--(3)---3------3--|--(3)---3------3--|
|--7---7-----7--|--5----5-----3--|--(3)---3------3--|--(3)---3------3--|
|--5---5-----5--|--3----3-----1--|--(1)---1------1--|--(1)---1------1--|
|---------------|----------------|------------------|------------------|
|
| Gtr II
|  Q   H     Q     Q.   Q.    Q     +Q    Q  Q   Q     +Q    H.
|---------------|----------------|------------------|------------------|
|---------------|----------------|------------------|------------------|
|-10--10----10--|--9----5-----9--|--(9)--10--7---7--|--(7)---7---------|
|--x---x-----x--|--x----x-----x--|--(x)---x--x---x--|--(x)---x---------|
|--8---8-----8--|--7----3-----7--|--(7)---8--5---5--|--(5)---5---------|
|---------------|----------------|------------------|------------------|
|
| Gtr I
|  Q   H     Q     Q.   Q.    Q     +Q    H      Q     +Q    H      Q
|---------------|----------------|------------------|------------------|
|---------------|----------------|------------------|------------------|
|-14--14----14--|-12----9----10--|-(10)--10-----10--|-(10)--10-----10--|
|--x---x-----x--|--x----x-----x--|--(x)---x------x--|--(x)---x------x--|
|-12--12----12--|-10----7-----8--|--(8)---8------8--|--(8)---8------8--|
|---------------|----------------|------------------|------------------|


  N.C.
  Gtr II
   E  E  E  E  E  E  E  E    E  E  E  E  E  E  E  E
|-------------------------|-------------------------|
|-------------------------|-------------------------|
|-10-10-10-10-10-10-10-10-|-12-12-12-12-12-12-14-14-|
|--x--x--x--x--x--x--x--x-|--x--x--x--x--x--x--x--x-|
|--8--8--8--8--8--8--8--8-|-10-10-10-10-10-10-12-12-|
|-------------------------|-------------------------|
|
| Gtr III
|  E  E  E  E  E  E  E  E    E  E  E  E  E  E  E  E
|-------------------------|-------------------------|
|-------------------------|-------------------------|
|--7--7--7--7--7--7--7--7-|--9--9--9--9--9--9-10-10-|
|--x--x--x--x--x--x--x--x-|--x--x--x--x--x--x--x--x-|
|--5--5--5--5--5--5--5--5-|--7--7--7--7--7--7--8--8-|
|-------------------------|-------------------------|


   E  E  E  E  E  E  E  E    E  E  E  E  E  E E E    Q   H     Q
|-------------------------|-----------------------|---------------|
|-------------------------|-----------------------|---------------|
|-14-14-14-14-14-14-15-15-|-15-15-10-10-10-10-9-9-|-10--10----10--|
|--x--x--x--x--x--x--x--x-|--x--x--x--x--x--x-x-x-|--x---x-----x--|
|-12-12-12-12-12-12-13-13-|-13-13--8--8--8--8-7-7-|--8---8-----8--|
|-------------------------|-----------------------|---------------|
|
|                                                   Gtr III
|  E  E  E  E  E  E  E  E    E  E  E  E  E  E E E    Q   H     Q
|-------------------------|-----------------------|---------------|
|-------------------------|-----------------------|---------------|
|-10-10-10-10-10-10-12-12-|-12-12--7--7--7--7-6-6-|--7---7-----7--|
|--x--x--x--x--x--x--x--x-|--x--x--x--x--x--x-x-x-|--7---7-----7--|
|--8--8--8--8--8--8-10-10-|-10-10--5--5--5--5-4-4-|--5---5-----5--|
|-------------------------|-----------------------|---------------|


  C5        Bb5
  Gtr I
                                  >
  Q.   Q.    Q     +W            +W
|---------------|-------------|---------|
|---------------|-------------|---------|
|-9----9----10--|-(10)--------|-(10)----|
|-x----x-----x--|--(x)--------|--(x)----|
|-7----7-----8--|--(8)--------|--(8)----|
|---------------|-------------|---------|
|
| Gtr III
|                                 >
| Q.   Q.    Q     +W            +W
|---------------|-------------|---------|
|---------------|-------------|---------|
|-5----5-----3--|--(3)--------|--(3)----|
|-5----5-----3--|--(3)--------|--(3)----|
|-3----3-----1--|--(1)--------|--(1)----|
|---------------|-------------|---------|


   Breakdown II
    N.C.      D5      N.C.      D5      N.C.
    Gtr I
    PM------|         PM------|         PM------|
    S S E E E q  Q    S S E E E q  Q    S S E E E E E E     E
||------------------|-----------------|---------------------------|
||o-----------------|-----------------|---------------------------|
||------------------|-----------------|---------------------------|
||------------------|-----------------|---------------------------|
||o-----------0-----|-----------0-----|---------------------------|
||--0-0-0-0-0-0-----|-0-0-0-0-0-0-----|-0-0-0-0-0-5-5-5b5.5-5b5.5-|
|
|   Gtr II
|   PM------|         PM------|         PM------|
|   S S E E E q  Q    S S E E E q  Q    S S E E E E E E     E
||------------------|-----------------|---------------------------|
||o-----------------|-----------------|---------------------------|
||------------------|-----------------|---------------------------|
||------------------|-----------------|---------------------------|
||o-----------0-----|-----------0-----|---------------------------|
||--0-0-0-0-0-0-----|-0-0-0-0-0-0-----|-0-0-0-0-0-8-8-8b8.5-8b8.5-|


  E   E   E     E     E    E    E      E     3x
|--------------------------------------------||
|-------------------------------------------o||
|--------------------------------------------||
|--------------------------------------------||
|-------------------------------------------o||
|-5b6-5b6-5b6.5-5b6.5-5b7--5b7--5b7.5--5b8---||
|
| E   E   E     E     E    E    E      E     3x
|--------------------------------------------||
|-------------------------------------------o||
|--------------------------------------------||
|--------------------------------------------||
|-------------------------------------------o||
|-8b9-8b9-8b9.5-8b9.5-8b10-8b10-8b10.5-8b11--||


    N.C.      D5      N.C.
    Gtr III
    PM------|         PM~~   PM~~
    S S E E E q  q    E Q.   E Q.    4x
||------------------|----------------||
||o-----------------|---------------o||
||------------------|----------------||
||------------------|----------------||
||o-----------0--0--|---------------o||
||--0-0-0-0-0-0--0--|-0-5----0-8-----||


   I Won't Help You
    F5                G5          A5
    Gtr III
    E E E E E E E E   E E E E E E E E
||------------------|-----------------|
||o-----------------|-----------------|
||------------------|-------------2-2-|
||--3-3-3-3-3-3-3-3-|-5-5-5-5-5-5-2-2-|
||o-3-3-3-3-3-3-3-3-|-5-5-5-5-5-5-0-0-|
||--3-3-3-3-3-3-3-3-|-5-5-5-5-5-5-----|
|
|   Gtr I
|   E E E E E E E E   E E E E E E Q
||------------------|-----------------|
||o-----------------|-----------------|
||--2-2-2-2-2-2-2-2-|-4-4-4-4-4-4-4---|
||--x-x-x-x-x-x-x-x-|-x-x-x-x-x-x-x---|
||o-0-0-0-0-0-0-0-0-|-2-2-2-2-2-2-2---|
||------------------|-----------------|
|
|   Gtr II
|   PM|   PM--|   PM----|   PM--| ~~~~~
|   E E E E E E E E   E E E E E E Q
||------------------|-----------------|
||o-----------------|-----------------|
||------2-------2---|-----4-------4---|
||--------3-------3-|-------5---------|
||o---3-------3-----|---5-------5-----|
||--3-------3-------|-5-------5-------|


                      G/B
   E  E E E E E E E   E E Q     E E Q
|-------------------|----------------------|
|-------------------|----------------------|
|--2--2-2-2-2-2-2-2-|-4-4-4-----4-4-4------|
|--2--2-2-2-2-2-2-2-|-5-5-5-----5-5-5------|
|--0--0-0-0-0-0-0-0-|-2-2-2-----2-2-2------|
|-------------------|----------------------|
|
| +E  E E E E E E E   E E Q     E E Q
|-------------------|----------------------|
|-------------------|----------------------|
|-(4)-4s5-5-5-5-5-5-|-7-7-7-----7-7-7------|
|-(x)-x-x-x-x-x-x-x-|-x-x-x-----x-x-x------|
|-(2)-2s3-3-3-3-3-3-|-5-5-5-----5-5-5------|
|-------------------|----------------------|
|
|~~~~~PM  PM--|   PM----|       PM|
| +E  E E E E E E E   E E E S S E E E S S
|-------------------|----------------------|
|-------------------|-----0h3p0-----0h3p0--|
|-(4)---5-------5---|----------------------|
|-----2---2---2---2-|---5---------5--------|
|-----------0-------|-2---------2----------|
|-------------------|----------------------|


  C5                E5                A5
  E E E E E E E E    E  E  E  E  E  E E E
|-----------------|-----------------------|
|-----------------|-----------------------|
|-5-5-5-5-5-5-5-5-|--9--9--9--9--9--9-----|
|-5-5-5-5-5-5-5-5-|--9--9--9--9--9--9-7-7-|
|-3-3-3-3-3-3-3-3-|--7--7--7--7--7--7-7-7-|
|-----------------|-------------------7-7-|
|
| E E E E E E E E    E  E  E  E  E  E E E
|-----------------|-----------------------|
|-----------------|-----------------------|
|-9-9-9-9-9-9-9-9-|-12-12-12-12-12-12-5-5-|
|-x-x-x-x-x-x-x-x-|--x--x--x--x--x--x-x-x-|
|-7-7-7-7-7-7-7-7-|-10-10-10-10-10-10-3-3-|
|-----------------|-----------------------|
|
| PM|   PM--|   PM-----|      PM|     ~~~~~
| E E E E E E E E    E  E  E  E  E  E Q
|-----------------|--------3--------3-----|
|-----5-------5---|-----------------------|
|-----------------|-----4-----4-------5---|
|---5---5---5---5-|--2-----------2--------|
|-3-------3-------|-----------------------|
|-----------------|-----------------------|


                G5
   E  E E E E E E E    E  E E E E E E E  3x
|-------------------|--------------------||
|-------------------|-------------------o||
|-------------------|--------------------||
|--7--7-7-7-7-7-5-5-|--5--5-5-5-5-5-5-5--||
|--7--7-7-7-7-7-5-5-|--5--5-5-5-5-5-5-5-o||
|--7--7-7-7-7-7-5-5-|--5--5-5-5-5-5-5-5--||
|
|  E  E E E E E E E    E  E E E E E E E  3x
|-------------------|--------------------||
|-------------------|-------------------o||
|--5--5-5-5-5-5-4-4-|--4--4-4-4-4-4-4-4--||
|--x--x-x-x-x-x-x-x-|--x--x-x-x-x-x-x-x--||
|--3--3-3-3-3-3-2-2-|--2--2-2-2-2-2-2-2-o||
|-------------------|--------------------||
|
|~~~~~PM  PM  PM~~~~~~~~~~          ~
| +E  E E E E E Q     +E  E E E E E Q    3x
|-------------------|--------------------||
|-------------------|-------------------o||
|-(5)---4---5---4---|-(4)---4---4-2------||
|-----2---2---2-----|-----0---0-----5----||
|-------------------|-------------------o||
|-------------------|--------------------||


 Pre-Solo
  N.C.
  Gtr I
    E  E  E  E  E  E  E  E    E  E  E  E  E  E  Q
|--------------------------|-------------------------|
|--------------------------|-------------------------|
|---2--2--2--2--2--2--2--2-|--4--4--4--4--4--4--4----|
|---x--x--x--x--x--x--x--x-|--x--x--x--x--x--x--x----|
|---0--0--0--0--0--0--0--0-|--2--2--2--2--2--2--2----|
|--------------------------|-------------------------|
|
| Gtr II
|   PM|      PM---|      PM-----|      PM---|   ~~~~~~
|   E  E  E  E  E  E  E  E    E  E  E  E  E  E  Q
|--------------------------|-------------------------|
|--------------------------|-------------------------|
|---------2-----------2----|--------4-----------4----|
|------------3-----------3-|-----------5-------------|
|------3-----------3-------|-----5-----------5-------|
|---3-----------3----------|--5-----------5----------|
|
| Gtr IV
|   E  E  E  E  E  E  E  E    E  E  E  E  E  E  E  E
|-/13----------------------|----------------15-13-12-|
|-----13-------------------|-------12-13-12----------|
|--------12----------------|----12-------------------|
|-----------15-------------|-12----------------------|
|--------------15----12-15-|-------------------------|
|-----------------15-------|-------------------------|


   +E   E  E  E  E  E  E  E    E  E  Q       E  E  Q
|---------------------------|-------------------------------|
|---------------------------|-------------------------------|
|--(4)--4s=5--5--5--5--5--5-|--7--7--7-------7--7--7--------|
|--(x)--x--x--x--x--x--x--x-|--x--x--x-------x--x--x--------|
|--(2)--2s=3--3--3--3--3--3-|--5--5--5-------5--5--5--------|
|---------------------------|-------------------------------|
|
|~~~~~~ PM    PM---|      PM-----|           PM|
|  +E   E  E  E  E  E  E  E    E  E  E  S S  E  E  E  S S
|---------------------------|-------------------------------|
|---------------------------|--------0h=3p0--------0h=3-0---|
|--(4)-----5-----------5----|-------------------------------|
|-------2-----2-----2-----2-|-----5-------------5-----------|
|----------------0----------|--2-------------2--------------|
|---------------------------|-------------------------------|
|
|  +E   E  E  E  E  E  E  E    E  E  E  E    E  E  E  E
|-(12)-------12----------12-|-------------------------------|
|---------13----------13----|-15----13-15---------13-15-----|
|------14----------14-------|----12------------12-----------|
|---------------14----------|---------------12--------------|
|---------------------------|-------------------------------|
|---------------------------|-------------------------------|


  N.C.
  Gtr I
   E  E  E  E E  E  E  E    E  E  E  E   E   E  E  E
|------------------------|---------------------------|
|------------------------|---------------------------|
|--9--9--9--9-9--9--9--9-|-12-12-12-12--12--12-12-12-|
|--x--x--x--x-x--x--x--x-|--x--x--x--x---x---x--x--x-|
|--7--7--7--7-7--7--7--7-|-10-10-10-10--10--10-10-10-|
|------------------------|---------------------------|
|
| Gtr II
|  PM|      PM--|      PM-----|      PM|
|  E  E  E  E E  E  E  E    E  E  E  E   E   E  Q
|------------------------|--------3----------3-------|
|--------5----------5----|---------------------------|
|------------------------|-----4-----4---------------|
|-----5-----5----5-----5-|--2------------2-----------|
|--3----------3----------|---------------------------|
|------------------------|---------------------------|
|
| Gtr IV
|                                    ~~~~~~~
|  E  E  E  Q    E  E  E    E  E  E  E  +H
|-------12s15---12-------|----12-15s19-(19)----------|
|-13-15------------13----|-12------------------------|
|---------------------12-|---------------------------|
|------------------------|---------------------------|
|------------------------|---------------------------|
|------------------------|---------------------------|


 Guitar Solo
     N.C.
     Gtr IV
   |------6-------|  |------6-------|  |---------6----------|  |-------6-------|
   S  S  S  S  S  S  S  S  S  S  S  S  S  S  S  S  S        S  S  S  S   S  S  S
|--------------------------------------------------------------------------------|
|-10-10-10-12-12-12-12-12-10-10-10-10-10-12-12-12-12b12.5==12-12-12-12r-12-12-12-|
|--------------------------------------------------------------------------------|
|--------------------------------------------------------------------------------|
|--------------------------------------------------------------------------------|
|--------------------------------------------------------------------------------|


   |--------6---------|  |-------6-------|      |------6-------|   |--------6---------|
   S  S  S  S      S  S  S  S   S  S  S  S      S  S  S  S  S  S   S  S  S  S      S  S
|-----------------------------------------------------------------------------------------|
|-10-10-10-12b13==12-12-12-12r-12-12-12-12b14==12-12-12-12-12-12r-12-12-12-12b14==12-12r--|
|-----------------------------------------------------------------------------------------|
|-----------------------------------------------------------------------------------------|
|-----------------------------------------------------------------------------------------|
|-----------------------------------------------------------------------------------------|


   |---------6----------|  |---------6---------|  |------6-------|   |--------6---------|
   S  S  S        S  S  S  S   S  S  S  S      S  S  S  S  S  S  S   S  S  S  S      S  S
|-----------------------------------------------------------------------------------------|
|-12-12-14b14.5==14-14-14-14r-12-12-12-14b15==14-14-14-14-14-14-14r-14-14-14-14b16==14-14-|
|-----------------------------------------------------------------------------------------|
|-----------------------------------------------------------------------------------------|
|-----------------------------------------------------------------------------------------|
|-----------------------------------------------------------------------------------------|


   |---------6---------|  |-------6-------|  |----------6-----------|     |----------6-----------|
   S  S   S  S  S      S  S  S  S  S   S  S  S  S       S  S     S  S     S  S       S  S     S  S
|------------------------------------------------------------------------------------------------------|
|-14-14r-14-14-16b17==16-16-16-16-16r-16-16-16-18b18.5-18-18b19-18-18b20-20-20b20.5-20-20b21-20-20b22--|
|------------------------------------------------------------------------------------------------------|
|------------------------------------------------------------------------------------------------------|
|------------------------------------------------------------------------------------------------------|
|------------------------------------------------------------------------------------------------------|


   S  S  T  T  S  S  S  T  T  S  S  S  T  T  S  S  S  T  T  S
|-17-18-17-17----17-18-17-17----17-18-17-17----17-18-17-17-18-|
|-------------18-------------18-------------18----------------|
|-------------------------------------------------------------|
|-------------------------------------------------------------|
|-------------------------------------------------------------|
|-------------------------------------------------------------|


   S  S  T  T  S  S  S  S  S  S  T  T  S  S  S  S  S  S
|-17-18-17-17-------------------------------------------|
|-------------18s14-14----14-15-14-14-------------------|
|----------------------14-------------14-14-15-14----14-|
|-------------------------------------------------17----|
|-------------------------------------------------------|
|-------------------------------------------------------|


   S  S  S  S  S  S  S  S  S  S  S  S  S  S  S  S
|-------------------------------------------------|
|-------------14-17-14----------------14-17-14----|
|-14-15-14-------------14-14-15-14-------------14-|
|----------17----------------------17-------------|
|-------------------------------------------------|
|-------------------------------------------------|


   S  S  S  S  S  S  S  S  S  S  S  S  S  S  S  S
|-------------18-21-18----------------------------|
|----14-17-14----------20-17-20-17-------17-------|
|-14-------------------------------18-18----18----|
|----------------------------------------------19-|
|-------------------------------------------------|
|-------------------------------------------------|


  D5                               A/C#
  Gtr I
   E    E +E  E E E +E      E       E    E +E  E  E  E  E      E
|--------------------------------|----------------------------------|
|--------------------------------|----------------------------------|
|--7----7-(7)-7-7-7-(7)-----7----|--6----6-(6)-6-14-14-14-----14----|
|--7----7-(7)-7-7-7-(7)-----7----|--7----7-(7)-7--x--x--x------x----|
|--5----5-(5)-5-5-5-(5)-----5----|--4----4-(4)-4-12-12-12-----12----|
|--------------------------------|----------------------------------|
|
| Gtr II
|  E    E +E  E E E +E      E       E    E +E  E  E  E +E      E
|--------------------------------|----------------------------------|
|--------------------------------|----------------------------------|
|--7----7-(7)-7-7-7-(7)-----7----|--6----6-(6)-6--6--6-(6)-----6----|
|--7----7-(7)-7-7-7-(7)-----7----|--7----7-(7)-7--7--7-(7)-----7----|
|--5----5-(5)-5-5-5-(5)-----5----|--4----4-(4)-4--4--4-(4)-----4----|
|--------------------------------|----------------------------------|
|
| Gtr IV
|  ~~~~~                            ~~~~~
|  H.                S   S  S  S    H.                  S   S  S  S
|--------------------------------|----------------------------------|
|-------------------15--17-18-15-|---------------------17--18-20-17-|
|-17b19--------------------------|-19b21----------------------------|
|--------------------------------|----------------------------------|
|--------------------------------|----------------------------------|
|--------------------------------|----------------------------------|


  G5                                C#m                  Dm
   E     E  E   E  E  E  E   E    E  E  E     E     E     E     Q
|------------------------------|------------------------------------|
|------------------------------|------------------------------------|
|-15----15-15--15-15-15-15--15-|----18-18----18----18s===19----19---|
|--x-----x--x---x--x--x--x---x-|-----x--x-----x-----x-----x-----x---|
|-13----13-13--13-13-13-13--13-|----16-16----16----16s===17----17---|
|------------------------------|------------------------------------|
|
|  E     E +E   E  E  E +E   E    E  E  E     E     E     E     Q
|------------------------------|------------------------------------|
|------------------------------|------------------------------------|
|------------------------------|------------------------------------|
|--5-----5-(5)--5--5--5-(5)--5-|-----2--2-----2-----2-----3-----3---|
|--5-----5-(5)--5--5--5-(5)--5-|-----4--4-----4-----4s====5-----5---|
|--5-----5-(5)--5--5--5-(5)--5-|------------------------------------|
|
|  ~~~~~                                                        ~~
|  W                              E  E  S  S  S  S  S  S  S  S  Q
|------------------------------|----------------20-22-23-22-20-22---|
|------------------------------|-20----------20---------------------|
|-21b22------------------------|----19----19------------------------|
|------------------------------|-------20---------------------------|
|------------------------------|------------------------------------|
|------------------------------|------------------------------------|


          F/A        A5           Gm/Bb
  Gtr III
  PM----| ~  PM----| ~    PM----|  ~~ PM----|
  S S S S Q  S S S S Q    S S S S  Q  e. e. e
|-----------------------|---------------------|
|-----------------------|---------------------|
|-----------------------|---------------------|
|-----------------------|---------------------|
|---------8----------7--|---------10--8--8--8-|
|-0-0-0-0-7--0-0-0-0-7--|-0-0-0-0--8--8--8--8-|


 Verse
  D5              C5         Bb5
  Gtr III
   Q   H     Q     Q.   Q.    Q     +Q    H      Q     +Q    H      Q
|---------------|----------------|------------------|------------------|
|---------------|----------------|------------------|------------------|
|--7---7-----7--|--5----5-----3--|--(3)---3------3--|--(3)---3------3--|
|--7---7-----7--|--5----5-----3--|--(3)---3------3--|--(3)---3------3--|
|--5---5-----5--|--3----3-----1--|--(1)---1------1--|--(1)---1------1--|
|---------------|----------------|------------------|------------------|
|
| Gtr II
|  Q   H     Q     Q.   Q.    Q     +Q    Q  Q   Q     +Q    H.
|---------------|----------------|------------------|------------------|
|---------------|----------------|------------------|------------------|
|-10--10----10--|--9----5-----9--|--(9)--10--7---7--|--(7)---7---------|
|--x---x-----x--|--x----x-----x--|--(x)---x--x---x--|--(x)---x---------|
|--8---8-----8--|--7----3-----7--|--(7)---8--5---5--|--(5)---5---------|
|---------------|----------------|------------------|------------------|
|
| Gtr I
|  Q   H     Q     Q.   Q.    Q     +Q    H      Q     +Q    H      Q
|---------------|----------------|------------------|------------------|
|---------------|----------------|------------------|------------------|
|-14--14----14--|-12----9----10--|-(10)--10-----10--|-(10)--10-----10--|
|--x---x-----x--|--x----x-----x--|--(x)---x------x--|--(x)---x------x--|
|-12--12----12--|-10----7-----8--|--(8)---8------8--|--(8)---8------8--|
|---------------|----------------|------------------|------------------|


  N.C.
  Gtr II
   E  E  E  E  E  E  E  E    E  E  E  E  E  E  E  E
|-------------------------|-------------------------|
|-------------------------|-------------------------|
|-10-10-10-10-10-10-10-10-|-12-12-12-12-12-12-14-14-|
|--x--x--x--x--x--x--x--x-|--x--x--x--x--x--x--x--x-|
|--8--8--8--8--8--8--8--8-|-10-10-10-10-10-10-12-12-|
|-------------------------|-------------------------|
|
| Gtr III
|  E  E  E  E  E  E  E  E    E  E  E  E  E  E  E  E
|-------------------------|-------------------------|
|-------------------------|-------------------------|
|--7--7--7--7--7--7--7--7-|--9--9--9--9--9--9-10-10-|
|--x--x--x--x--x--x--x--x-|--x--x--x--x--x--x--x--x-|
|--5--5--5--5--5--5--5--5-|--7--7--7--7--7--7--8--8-|
|-------------------------|-------------------------|


                                                                 >
   E  E  E  E  E  E  E  E    E  E  E  E  E  E Q    +W           +W
|-------------------------|----------------------|------------|--------|
|-------------------------|----------------------|------------|--------|
|-14-14-14-14-14-14-15-15-|-15-15-10-10-10-10-9--|-(9)--------|-(9)----|
|--x--x--x--x--x--x--x--x-|--x--x--x--x--x--x-x--|-(x)--------|-(x)----|
|-12-12-12-12-12-12-13-13-|-13-13--8--8--8--8-7--|-(7)--------|-(7)----|
|-------------------------|----------------------|------------|--------|
|
|                                                                >
|  E  E  E  E  E  E  E  E    E  E  E  E  E  E Q    +W           +W
|-------------------------|----------------------|------------|--------|
|-------------------------|----------------------|------------|--------|
|-10-10-10-10-10-10-12-12-|-12-12--7--7--7--7-6--|-(6)--------|-(6)----|
|--x--x--x--x--x--x--x--x-|--x--x--x--x--x--x-x--|-(x)--------|-(x)----|
|--8--8--8--8--8--8-10-10-|-10-10--5--5--5--5-4--|-(4)--------|-(4)----|
|-------------------------|----------------------|------------|--------|


  D5              C5         Bb5
  Gtr III
   Q   H     Q     Q.   Q.    Q     +Q    H      Q     +Q    H      Q
|---------------|----------------|------------------|------------------|
|---------------|----------------|------------------|------------------|
|--7---7-----7--|--5----5-----3--|--(3)---3------3--|--(3)---3------3--|
|--7---7-----7--|--5----5-----3--|--(3)---3------3--|--(3)---3------3--|
|--5---5-----5--|--3----3-----1--|--(1)---1------1--|--(1)---1------1--|
|---------------|----------------|------------------|------------------|
|
| Gtr II
|  Q   H     Q     Q.   Q.    Q     +Q    Q  Q   Q     +Q    H.
|---------------|----------------|------------------|------------------|
|---------------|----------------|------------------|------------------|
|-10--10----10--|--9----5-----9--|--(9)--10--7---7--|--(7)---7---------|
|--x---x-----x--|--x----x-----x--|--(x)---x--x---x--|--(x)---x---------|
|--8---8-----8--|--7----3-----7--|--(7)---8--5---5--|--(5)---5---------|
|---------------|----------------|------------------|------------------|
|
| Gtr I
|  Q   H     Q     Q.   Q.    Q     +Q    H      Q     +Q    H      Q
|---------------|----------------|------------------|------------------|
|---------------|----------------|------------------|------------------|
|-14--14----14--|-12----9----10--|-(10)--10-----10--|-(10)--10-----10--|
|--x---x-----x--|--x----x-----x--|--(x)---x------x--|--(x)---x------x--|
|-12--12----12--|-10----7-----8--|--(8)---8------8--|--(8)---8------8--|
|---------------|----------------|------------------|------------------|


  N.C.
  Gtr II
   E  E  E  E  E  E  E  E    E  E  E  E  E  E  E  E
|-------------------------|-------------------------|
|-------------------------|-------------------------|
|-10-10-10-10-10-10-10-10-|-12-12-12-12-12-12-14-14-|
|--x--x--x--x--x--x--x--x-|--x--x--x--x--x--x--x--x-|
|--8--8--8--8--8--8--8--8-|-10-10-10-10-10-10-12-12-|
|-------------------------|-------------------------|
|
| Gtr III
|  E  E  E  E  E  E  E  E    E  E  E  E  E  E  E  E
|-------------------------|-------------------------|
|-------------------------|-------------------------|
|--7--7--7--7--7--7--7--7-|--9--9--9--9--9--9-10-10-|
|--x--x--x--x--x--x--x--x-|--x--x--x--x--x--x--x--x-|
|--5--5--5--5--5--5--5--5-|--7--7--7--7--7--7--8--8-|
|-------------------------|-------------------------|


   E  E  E  E  E  E  E  E    E  E  E  E  E  E E E    Q   H     Q
|-------------------------|-----------------------|---------------|
|-------------------------|-----------------------|---------------|
|-14-14-14-14-14-14-15-15-|-15-15-10-10-10-10-9-9-|-10--10----10--|
|--x--x--x--x--x--x--x--x-|--x--x--x--x--x--x-x-x-|--x---x-----x--|
|-12-12-12-12-12-12-13-13-|-13-13--8--8--8--8-7-7-|--8---8-----8--|
|-------------------------|-----------------------|---------------|
|
|  E  E  E  E  E  E  E  E    E  E  E  E  E  E E E    Q   H     Q
|-------------------------|-----------------------|---------------|
|-------------------------|-----------------------|---------------|
|-10-10-10-10-10-10-12-12-|-12-12--7--7--7--7-6-6-|--7---7-----7--|
|--x--x--x--x--x--x--x--x-|--x--x--x--x--x--x-x-x-|--7---7-----7--|
|--8--8--8--8--8--8-10-10-|-10-10--5--5--5--5-4-4-|--5---5-----5--|
|-------------------------|-----------------------|---------------|


  C5        Bb5
  Gtr I
                                  >
  Q.   Q.    Q     +W            +W
|---------------|-------------|---------|
|---------------|-------------|---------|
|-9----9----10--|-(10)--------|-(10)----|
|-x----x-----x--|--(x)--------|--(x)----|
|-7----7-----8--|--(8)--------|--(8)----|
|---------------|-------------|---------|
|
|                                 >
| Q.   Q.    Q     +W            +W
|---------------|-------------|---------|
|---------------|-------------|---------|
|-5----5-----3--|--(3)--------|--(3)----|
|-5----5-----3--|--(3)--------|--(3)----|
|-3----3-----1--|--(1)--------|--(1)----|
|---------------|-------------|---------|


 Come Back
  Bb/G            Fsus4    F
  Gtr III
  E  E  E E  E  E Q    +E  E Q  Q  E E
|--------------------|-----------------|
|--------------------|-----------------|
|-----------------3--|-(3)-------------|
|-8--8--8-8--8--8-3--|-(3)-7-7--7--7-7-|
|-5-(5)-5-5-(5)-5-3--|-(3)-3-3--3--3-3-|
|-5-(5)-5-5-(5)-5-3--|-(3)-3-3--3--3-3-|


  C/A                 F5/Bb      Bb
   E  E   E  E  E   E  Q     +E   E  Q   H
|-------------------------|-------------------|
|-------------------------|-------------------|
|-------------------------|-------------------|
|-10-10--10-10-10--10-10--|-(10)-12-12--12----|
|--7-(7)--7--7-(7)--7--8--|--(8)--8--8---8----|
|--7-(7)--7--7-(7)--7--8--|--(8)--8--8---8----|


  Bb/G            Fsus4    F             F/D
  E  E  E E  E  E Q    +E  E Q  Q  E E   W          +W
|--------------------|-----------------|----------|--------|
|--------------------|-----------------|----------|--------|
|-----------------3--|-(3)-------------|----------|--------|
|-8--8--8-8--8--8-3--|-(3)-7-7--7--7-7-|-3--------|-(3)----|
|-5-(5)-5-5-(5)-5-3--|-(3)-3-3--3--3-3-|-0--------|-(0)----|
|-5-(5)-5-5-(5)-5-3--|-(3)-3-3--3--3-3-|-0--------|-(0)----|


 Outro
  G5              F5
  Gtr III
  Q     E Q     E Q     +E  E Q   Q   E  E
|---------------------|---------------------|
|---------------------|---------------------|
|---------------------|---------------------|
|-5-----5-5-----5-3---|-(3)-3-3---3---3--3--|
|-5-----5-5-----5-3---|-(3)-3-3---3---3--3--|
|-5-----5-5-----5-3---|-(3)-3-3---3---3--3--|
|
| Gtr II
|    PM|     PM|    PM--|     PM|   PM|
| E  E  E E  E  E E E    E  E E E E E E +E
|---------------------|---------------------|
|---------------------|---------------------|
|---------------------|---------------------|
|-8-------8-------8---|-----7-----7---------|
|---10-10---10-10---8-|--8----8-8---8-8-(8)-|
|---------------------|---------------------|


  A5            Bb5
   Q   E  Q   E  Q     +E   E Q    H
|-------------------|-------------------------|
|-------------------|-------------------------|
|-------------------|-------------------------|
|--7---7--7---7--8--|--(8)--8-8----8----------|
|--7---7--7---7--8--|--(8)--8-8----8----------|
|--7---7--7---7--8--|--(8)--8-8----8----------|
|
|    PM|    PM|               PM|    PM
|  E E E  E E E  Q     +E   E E E  E E  E  E
|-------------------|-------------------------|
|-------------------|-------------------------|
|-------------------|-------------------------|
|-10-----10-----10--|-(10)s12-----12---12-12s=|
|----8-8----8-8-----|---------8-8----8--------|
|-------------------|-------------------------|


  G5                F5
   Q     E  Q     E  Q     +E   E  Q     Q     E  E
|-----------------------|---------------------------|
|-----------------------|---------------------------|
|-----------------------|---------------------------|
|--5-----5--5-----5--3--|--(3)--3--3-----3-----3--3-|
|--5-----5--5-----5--3--|--(3)--3--3-----3-----3--3-|
|--5-----5--5-----5--3--|--(3)--3--3-----3-----3--3-|
|
|     PM|      PM|                 PM|      PM|
|  E  E  E  E  E  E  Q     +E   E  E  E  E  E  E  E
|-----------------------|---------------------------|
|-----------------------|---------------------------|
|-----------------------|---------------------------|
|-15-12----15-12----15--|-(15)-14-------14-------14-|
|-----------------------|---------------------------|
|-------15-------15-----|---------10-10----10-10----|


  A5          Bb5
   q.    q.    Q     +W
|-----------------|-----------------------|
|-----------------|-----------------------|
|--2-----2-----3--|--(3)------------------|
|--2-----2-----3--|--(3)------------------|
|--0-----0-----1--|--(1)------------------|
|-----------------|-----------------------|
|
|                     ~~~~
|  q.    q.    Q     +Q.    +E   Q   +Q
|-----------------|-----------------------|
|-----------------|-----------------------|
|-----------------|-----------------------|
|-10----10----12--|-(12)---(12)s10--(10)--|
|-----------------|-----------------------|
|-----------------|-----------------------|


                                      >
   +W                   +W           +W           +W           +W
|---------------------|------------|------------|------------|--------*|
|---------------------|------------|------------|------------|--------*|
|--(3)----------------|-(3)--------|-(3)--------|-(3)--------|-(3)----*|
|--(3)----------------|-(3)--------|-(3)--------|-(3)--------|-(3)----*|
|--(1)----------------|-(1)--------|-(1)--------|-(1)--------|-(1)----*|
|---------------------|------------|------------|------------|--------*|
|
|                                     >
|            ~~~~~~~~~~~~~~~~~~~~~~~~~~~~
|  +Q    +E  E +H       +W           +W           +W           +W
|---------------------|------------|------------|------------|--------*|
|---------------------|------------|------------|------------|--------*|
|---------------------|------------|------------|------------|--------*|
|-(10)--(10)s3-(3)----|-(3)--------|-(3)--------|-(3)--------|-(3)----*|
|---------------------|------------|------------|------------|--------*|
|---------------------|------------|------------|------------|--------*|



Duration Legend
---------------
W - whole; H - half; Q - quarter; E - 8th; S - 16th; T - 32nd; X - 64th; a - acciaccatura
+ - note tied to previous; . - note dotted; .. - note double dotted
Uncapitalized letters represent notes that are staccato (1/2 duration)
Irregular groupings are notated above the duration line
Duration letters will always appear directly above the note/fret number it represents the
duration for.  Duration letters with no fret number below them represent rests.  Multi-
bar rests are notated in the form Wxn, where n is the number of bars to rest for.  Low
melody durations appear below the staff

Tablature Legend
----------------
 h   - hammer-on
 p   - pull-off
 b   - bend
 pb  - pre-bend
 r   - bend release (if no number after the r, then release immediately)
 /\  - slide into or out of (from/to "nowhere")
 s   - legato slide
 S   - shift slide
<n> - natural harmonic
[n]  - artificial harmonic
n(n) - tapped harmonic
 ~   - vibrato
 tr  - trill
 T   - tap
 TP  - trem. picking
 PM  - palm muting
\n/  - tremolo bar dip; n = amount to dip
 \n  - tremolo bar down
 n/  - tremolo bar up
/n\  - tremolo bar inverted dip
 =   - hold bend; also acts as connecting device for hammers/pulls
 <> - volume swell (louder/softer)
 x   - on rhythm slash represents muted slash
 o   - on rhythm slash represents single note slash

Misc Legend
-----------
 |  - bar
||  - double bar
||o - repeat start
o|| - repeat end
*|  - double bar (ending)
 :  - bar (freetime)
 $  - Segno
 &  - Coda
Tempo markers - <E/E./Q/Q./H/H.> = BPM(8/16=s8/s16), where s8 = swing 8ths, s16 = swing 16ths


									


911Tabs.com - tabs search engine
More "Burn It Down" tabs @ 911Tabs

A Guide to Tab NotationGuitar TabsGuitar ResourcesGuitar TabsPrivacy PolicyGuitar TabsContact

Online Guitar Lessons

Avenged Sevenfold Guitar Tabs - Over 200,000 chords, guitar and bass tabs with video. Find tabs, video guitar lessons and more.