Music Guitar Tab, Tabs with MP3, ringtones, ringtone, concert tickets, guitar lessons, guitar tabs easy, guitar hero

Guitar Tabs Guitar Chords Bass Tabs
 Web Guitar Tabs
Guitar Lessons
 
Lyrics abcdefghijklmnopqrstuvwxyz # Top 100 Lyrics

Guitar Tabs
Guitar Tab






click on, click off


Tab for "Blinded In Chains Solo" - Avenged Sevenfold Rating 4Print Guitar Tabs
select alternative YouTube videos below...
Tweak the search term to refine the YouTube video results:         
Share on Facebook

Learn to play this song and others via online guitar lessons @ JamPlay.com!

“Blinded In Chains Bass Solo”
Bass Solo Tab
By- riverachase

Song by Avenged Sevenfold
Album City of Evil

On the actual Cd Im pretty Sure Johnny Christ records this on a 8 String Bass.
 Source : http://youtube.com/watch?v=7UkfV-Gyc1I
Drop D Tuning

Part 1
G|---------------------------------------------|
D|----------------------------3----3-----------|
A|--5----------------------5----5---5----5-----|
D|-----0-3-5-6-5-3-0-0---------------3---------|

Part 2
G|---------------------------------------------|
D|---------------------------------------------|
A|--5-----------------------5--------4---------|
D|-----0-3-5-6-5-3-0-0------333----222---------|

Part3 (End)
G|-----------------------------------------------|
D|-----------------------------------------------|
A|--5--------------------------------------------|
D|-----0-3-5-6-5-3-0-0------333----222--0--------|

Order
Part1\
Part2 \
Part1 / 2 Times
Part2/

Part1
Part2
Part1
Part3
									


911Tabs.com - tabs search engine
More "Blinded In Chains Solo" tabs @ 911Tabs

A Guide to Tab NotationGuitar TabsGuitar ResourcesGuitar TabsPrivacy PolicyGuitar TabsContact

Online Guitar Lessons

Avenged Sevenfold Guitar Tabs - Over 200,000 chords, guitar and bass tabs with video. Find tabs, video guitar lessons and more.