Music Guitar Tab, Tabs with MP3, ringtones, ringtone, concert tickets, guitar lessons, guitar tabs easy, guitar hero

Guitar Tabs Guitar Chords Bass Tabs
 Web Guitar Tabs
Guitar Lessons
 
Lyrics abcdefghijklmnopqrstuvwxyz # Top 100 Lyrics

Guitar Tabs
Guitar Tab






click on, click off


Tab for "Blinded In Chains" - Avenged Sevenfold Rating 4Print Guitar Tabs
select alternative YouTube videos below...
Tweak the search term to refine the YouTube video results:         
Share on Facebook

Learn to play this song and others via online guitar lessons @ JamPlay.com!

Band- Avenged Sevenfold
Song- Blinded In Chains

~= let ring
p= pull off
h= hammer on
.= palm mute
^^= double digit
/= slide up

G|-------------------------------------------|
D|-------------------------------------------|
A|-------------------------------------------| x2
D|-0000000-0000000-0000-0000000-0000000-0000-|

G|-------------------------------------------------------------------------|
D|-------------------------------------------------------------------------|
A|-------------------------------------------------------33333333-33333333-|
D|-00000000-00000000-88888888-88888888-55555555-33333333-------------------|

G|----------------------------------------------------------------|
D|----------------------------------------------------------------|
A|--------------------------------------5-5-3-3-33333333-33333333-|
D|-00000000-00000000-88888888-88888888-5-5-3-3--------------------|

G|----------------------------|
D|----------------------------|
A|----------------------------|
D|-00-000-000-06666-00-000-00-|

G|----------------------------------------------------------------------------------|
D|----------------------------------------------------------------------------------|
A|---------------------------------------1---------------------------------------1--|
D|-5p0-0h3p0-0h5p0-08888-5p0-0h3p0-41111--4444-5p0-0h3p0-0h5p0-08888-5p0-0h3p0-41-4-|

G|----------------------------------------------------------------------|
D|----------------------------------------------------------------------|
A|----------------------------------------------------------------------|
D|-00-000-000-06666-00-000-000-04444-00-000-000-06666-00-000-000-444111-|

G|------------------------------------------------------------------------|
D|------------------------------------------------------------------------|
A|-----------------------------------------------------------------111----|
D|-00-000-000-06666-00-000-000-04444-00-000-000-06666-00-000-444111---444-|

G|-------------------------------------------------------------------|
D|-------------------------------------------------------------------|
A|---------------1-11-111-3-33-333---------------1-11-111-3-33-/7777-|
D|-065035-065035-------------------065035-065035---------------------|

G|-----------------------------------|
D|-----------------------------------|
A|-5555-------------5555-------------|
D|------2222-3-3-/8------2222-3-3-/8-|

G|----------------------------------------------------------------------|
D|----------------------------------------------------------------------|
A|----------------------------------------------------------------------|
D|-00-000-000-06666-00-000-000-04444-00-000-000-06666-00-000-000-444111-|

G|------------------------------------------------------------------------|
D|------------------------------------------------------------------------|
A|-----------------------------------------------------------------111----|
D|-00-000-000-06666-00-000-000-04444-00-000-000-06666-00-000-444111---444-|

G|----------------------------------------------------------------------|
D|----------------------------------------------------------------------|
A|----------------------------------------------------------------------|
D|-00-000-000-06666-00-000-000-04444-00-000-000-06666-00-000-000-444111-|

G|-----------------------------------------------------------------|
D|-----------------------------------------------------------------|
A|---------------1-11-111-3-33-333---------------1-11-111-3-33-333-|
D|-065035-065035-------------------065035-065035-------------------|

G|-------------------------------------------------|
D|-------------------------------------------------|
A|-------------------------------------------------|
D|-00335588-7777777-8757-00335588-7777777-77777777-|

G|-----------------------------------------|
D|-----------------------------------------|
A|-5555-----------4444-5555-----------4444-|
D|------8888-7777-----------8888-7777------|

G|------------------------------------------|
D|------------------------------------------|
A|-5555-------------5555--------------------| x2
D|------2222-3-3-/8------2222-3-3-/8-787810-|

G|----------------------|
D|----------------------|
A|----------------------|
D|-0000000-0000000-0000-|

G|-------------------------------------------------------------------------------------|
D|-------------------------------------------------------------------------------------|
A|-------------------------------------------------------------------------------------| x2
D|-0000000-0000000-0000-8888888-8888888-8888-5555555-3333333-3333-2222222-2222222-2222-|

G|---------------------------------|
D|---------------------------------|
A|---------1~--15310---------------|
D|-0~---------------5~---3~---2~---|

G|-----------------------------------------------------------------------|
D|-----------------------------------------------------------------------|
A|-----------------------------------------------------------------------| x2
D|-00000000-00000000-88888888-88888888-558-558-337-337-22222222-22222222-|

G|-------------------------------------------------------------------------|
D|-------------------------------------------------------------------------|
A|-------------------------------------------------------------------------|
D|-00000000-00000000-33333333-44444444-55555555-55555555-88888888-88888888-|

G|----------------------------------|
D|----------------------------------|
A|-8--------8------------------4444-|
D|--8888888--1087-33333333-7777-----|
             ^^
G|-------------------------------------------------------------------------|
D|-------------------------------------------------------------------------|
A|-------------------------------------------------------------------------|
D|-00000000-00000000-33333333-44444444-55555555-55555555-88888888-88888888-|

G|-----------------------------------|
D|-----------------------------------|
A|-8--------8------------------4444--|
D|--8888888--1087-33333333-7777----0-|
             ^^
G|-------------------------------------|
D|-------------------------------------|
A|-1-11-111-3-33-333-11111111-00004444-|
D|-------------------------------------|

G|-----------------------------------------------------------------|
D|-----------------------------------------------------------------|
A|---------------1-11-111-3-33-333---------------1-11-111-3-33-333-|
D|-065035-065035-------------------065035-065035-------------------|

G|-------------------------------------------------|
D|-------------------------------------------------|
A|-------------------------------------------------|
D|-00335588-7777777-8757-00335588-7777777-77777777-|

G|---------------------------------------------|
D|---------------------------------2--2-0-0----|
A|-----------------------------1014-41--5-5----|
D|-78757532-78757532-7532-7532--------------0~-|
                                        . .
G|---------------------------------------------------------------------|
D|-----------3-3-------------------------------3-3---------------------|
A|-5--------5-5-5---5-------5---4----5--------5-5-5-5-5-------5---4----|
D|--03565303-----30--0356530-333-222--03565303-----3---0356530-333-222-|

G|---------------------------------------------------------------------|
D|-----------3-3-------------------------------3-3---------------------|
A|-5--------5-5-5---5-------5---4----5--------5-5-5-5-5----------------|
D|--03565303-----30--0356530-333-222--03565303-----3---035653033332222-|

G|------------------------------------------------------------------------------|
D|-----------3-3----------------------------------------------------------------|
A|-5--------5-5-5---5-------5---4-----------------------------55555555-77777777-|
D|--03565303-----30--0356530-333-222-0~------7~------8~-------------------------|

G|---------------------------------------------------------------------
D|-----------3-3-------------------------------3-3---------------------|
A|-5--------5-5-5---5-------5---4----5--------5-5-5-5-5-------5---4----|
D|--03565303-----30--0356530-333-222--03565303-----3---0356530-333-222-|

G|---------------------------------------------------------------------|
D|-----------3-3-------------------------------3-3---------------------|
A|-5--------5-5-5---5-------5---4----5--------5-5-5-5-5----------------|
D|--03565303-----30--0356530-333-222--03565303-----3---035653033332222-|

G|---------------------------------------------------------------------|
D|-----------3-3-------------------------------3-3---------------------|
A|-5--------5-5-5---5-------5---4----5--------5-5-5-5-5-------5---4----|
D|--03565303-----30--0356530-333-222--03565303-----3---0356530-333-222-|
									


911Tabs.com - tabs search engine
More "Blinded In Chains" tabs @ 911Tabs

A Guide to Tab NotationGuitar TabsGuitar ResourcesGuitar TabsPrivacy PolicyGuitar TabsContact

Online Guitar Lessons

Avenged Sevenfold Guitar Tabs - Over 200,000 chords, guitar and bass tabs with video. Find tabs, video guitar lessons and more.