Music Guitar Tab, Tabs with MP3, ringtones, ringtone, concert tickets, guitar lessons, guitar tabs easy, guitar hero

Guitar Tabs Guitar Chords Bass Tabs
 Web Guitar Tabs
Guitar Lessons
 
Lyrics abcdefghijklmnopqrstuvwxyz # Top 100 Lyrics

Guitar Tabs
Guitar Tab






click on, click off


Tab for "Beast And The Harlot Solo" - Avenged Sevenfold Rating 4Print Guitar Tabs
select alternative YouTube videos below...
Tweak the search term to refine the YouTube video results:         
Share on Facebook

Learn to play this song and others via online guitar lessons @ JamPlay.com!

-------------------------------------------------------------------------------
			     Beast and the Harlot - Avenged Sevenfold
-------------------------------------------------------------------------------
Tabbed by: [travis]	
Email: syn_gates_punk14@msn.com

This is the solo from "Beast and the Harlot."

Tuning: Drop-D (D A D G B E) [low to high]

... : palm mute
b = bend
[] = note the bend should sound like
{} = bring bent note to this note.
() = note is note struck.
\ /= slides
~ = vibrato, ring out
h= hammer on
p= pull off

Guitar 1:
e|-10---------------12---------(12)//---16-----------16-------16-------------(16)\--|
B|-13b[15]~~~~~~~~--15b[17]----(15)//---19b[21]------19b[21]--19[21]~~~~~~~~-(19)\--|
G|----------------------------------------------------------------------------------|
D|----------------------------------------------------------------------------------|
A|----------------------------------------------------------------------------------|
D|----------------------------------------------------------------------------------|

Guitar 1:
e|-/10---13p10-----10-------------------------------------------------------------|
B|--------------13-----13b[15]~~~~~~(13)\---8---------9-------10-------11-----\---|
G|------------------------------------------10b[12]--11b[13]--12b[14]--13b[15]\---|
D|--------------------------------------------------------------------------------|
A|--------------------------------------------------------------------------------|
D|--------------------------------------------------------------------------------|

Guitar 1:
e|----------------------------------------13-15-16--17~~-|
B|-13-12-11-10-14-13-12-11-15-14-13-14-16----------------|
G|-------------------------------------------------------|
D|-------------------------------------------------------|
A|-------------------------------------------------------|
D|-------------------------------------------------------|

Guitar 1:
e|-17------17------------------/20-17--------------------------------------|
B|---18-17----17-18-17----17----------20-17--(17)\-------------------------|
G|---------------------17---17----------------------7-5-----------5-6-7~~~-|
D|-----------------------------------------------------------5-6-7---------|
A|------------------------------------------------------5-6-8--------------|
D|-------------------------------------------------------------------------|

Guitar 1:
e|-------------------------------------------------12-|
B|-----------------------------9-10-13-11-10-11-13----|
G|-(7)\-/9~~~--7-9-10~~~--9h10------------------------|
D|----------------------------------------------------|
A|----------------------------------------------------|
D|----------------------------------------------------|

Guitar 1:
e|-13~~~-(13)\-/13\-/15\-/12~~~(12)\--------------------------------------------|
B|----------------------------------/13~~~(13)\13b[15]---{13}-(13)b[15]---{13}\-|
G|------------------------------------------------------------------------------|
D|------------------------------------------------------------------------------|
A|------------------------------------------------------------------------------|
D|------------------------------------------------------------------------------|

Guitar 2:
e|-17~~~-(17)\-/17\-/18\-/15~~~(15)\--------------------------------------------|
B|----------------------------------/17~~~(17)\17b[19]---{17}-(17)b[19]---{17}\-|
G|------------------------------------------------------------------------------|
D|------------------------------------------------------------------------------|
A|------------------------------------------------------------------------------|
D|------------------------------------------------------------------------------|

Guitar 1:
e|-13b[15]~~~~~~~~~~~~~-|
B|----------------------|
G|----------------------|
D|----------------------|
A|----------------------|
D|----------------------|

Guitar 2:
e|-20b[22]~~~~~~~~~~~~~-|
B|----------------------|
G|----------------------|
D|----------------------|
A|----------------------|
D|----------------------|

Guitar 1:
e|---------------------------------------------------------------------------------|
B|---------------------------------------------------------------------------------|
G|----------------7-8-8-7------------------------------7-8-10-8-7-10-8-7-----------|
D|-------5-7-8-10--------10-8-7----7-------------7-8-10-------------------10-8-7-7-|
A|-5-7-8------------------------10--10-8-7-8-10------------------------------------|
D|---------------------------------------------------------------------------------|
   ...........

Guitar 1:
e|----------------------------------------------------10h12h13p12p10-12-10------------------------|
B|----------------------------------10-11-13-10-11-13---------------------13--11-10h11p10---------|
G|-------------7-9-10-12-10-9-10-12-------------------------------------------------------12-10~~-|
D|------7-8-10------------------------------------------------------------------------------------|
A|-8-10-------------------------------------------------------------------------------------------|
D|------------------------------------------------------------------------------------------------|

Really Fast
Guitar 1:
e|-22-21-20-19-------------------------------------------------------------------------------|
B|------------22-21-20-19-----------------------22-21-20-19----------------------------------|
G|-----------------------22-21-10-19-----------------------22-21-20-19-----------------------|
D|----------------------------------22-21-20-19-----------------------22-21-20-19------------|
A|-------------------------------------------------------------------------------22-21-20-19-|
D|-------------------------------------------------------------------------------------------|

Guitar 2:
e|-18-17-16-15------------------------------------------------------------------------------|
B|------------18-17-16-15----------------------18-17-16-15----------------------------------|
G|-----------------------18-17-16-15----------------------18-17-16-15-----------------------|
D|----------------------------------18-17-16-15----------------------18-17-16-15------------|
A|------------------------------------------------------------------------------18-17-16-15-|
D|------------------------------------------------------------------------------------------|

Guitar 1:
e|-18-17-16-15------------------------------------------------------------------------------|
B|------------18-17-16-15----------------------18-17-16-15----------------------------------|
G|-----------------------18-17-16-15----------------------18-17-16-15-----------------------|
D|----------------------------------18-17-16-15----------------------18-17-16-15------------|
A|------------------------------------------------------------------------------18-17-16-15-|
D|------------------------------------------------------------------------------------------|

Guitar 2:
e|-15-14-13-12------------------------------------------------------------------------------|
B|------------15-14-13-12----------------------15-14-13-12----------------------------------|
G|-----------------------15-14-13-12----------------------15-14-13-12-----------------------|
D|----------------------------------15-14-13-12----------------------15-14-13-12------------|
A|------------------------------------------------------------------------------15-14-13-12-|
D|------------------------------------------------------------------------------------------|

Guitar 1:
e|-----------------------|
B|---17b[18]~~~~~~~~~~~~-|
G|-----------------------|
D|-----------------------|
A|-----------------------|
D|-----------------------|

Guitar 2:
e|-----------------------|
B|-----------------------|
G|---17b[19]~~~~~~~~~~~~-|
D|-----------------------|
A|-----------------------|
D|-----------------------|


That's it. Pretty fast solo as well. Rate it or comment it.
[travis]
									


911Tabs.com - tabs search engine
More "Beast And The Harlot Solo" tabs @ 911Tabs

A Guide to Tab NotationGuitar TabsGuitar ResourcesGuitar TabsPrivacy PolicyGuitar TabsContact

Online Guitar Lessons

Avenged Sevenfold Guitar Tabs - Over 200,000 chords, guitar and bass tabs with video. Find tabs, video guitar lessons and more.