Music Guitar Tab, Tabs with MP3, ringtones, ringtone, concert tickets, guitar lessons, guitar tabs easy, guitar hero

Guitar Tabs Guitar Chords Bass Tabs
 Web Guitar Tabs
Guitar Lessons
 
Lyrics abcdefghijklmnopqrstuvwxyz # Top 100 Lyrics

Guitar Tabs
Guitar Tab






click on, click off


Tab for "Beast And The Harlot" - Avenged Sevenfold Rating 4Print Guitar Tabs
select alternative YouTube videos below...
Tweak the search term to refine the YouTube video results:         
Share on Facebook

Learn to play this song and others via online guitar lessons @ JamPlay.com!

Beast And The Harlot - Avenged Sevenfold

This is how I play it. Its A little easyer (Chorus and Verse wise)


Tuning: Drop D (D,A,D,G)

   Intro


G---------------------------------------------------------------|
D---------------------------------------------2-3-3-3-3-3-3-3-3-|
A-9-9-9-9-9-9-9/5-5-5-5-5-5-4-4-4-4-4-4-3-3-5-------------------|
D---------------------------------------------------------------|

G-------------------------------|
D-------------------------------|
A-4-4-4-4-4-4-3/1-1-1-1-1-1-1-1~|
D-------------------------------|

      Syn comes in here (2nd one not first)
G---|---|---|---|---|
D---|---|---|---|---|
A---|---|---|---|---|
D-0~|-0~|-0~|-0~|-0~|

 2x
G--------------------------------------------------------------------|
D--------------------------------------------------------------------|
A--------------------------------------------------------------------|
D-0-0-3-0-0-5-0-0-6-0-0-5-0-0-3-5-0-0-3-0-0-5-0-0-6-0-0-3-0-0-5-0-0-6|

Verse
G--------------------------------------------------------------------|
D--------------------------------------------------------------------|
A--------------------------------------------------------------------|
D-0-0-3-0-0-5-0-0-6-0-0-5-0-0-3-5-0-0-3-0-0-5-0-0-6-0-0-3-0-0-5-0-0-6|2x

G------------|
D------------|
A-1~-----0-1-|
D----5-6-----|

G--------------------------------------------------------------------|
D--------------------------------------------------------------------|
A--------------------------------------------------------------------|
D-0-0-3-0-0-5-0-0-6-0-0-5-0-0-3-5-0-0-3-0-0-5-0-0-6-0-0-3-0-0-5-0-0-6|2x

G-------------------|
D-------------------|
A-1~-----0-1-0-1-2-3|
D----5-6------------|

Chours

G--------------------------------------------------------------------------|
D------------------------------------532-----------------------------------|
A---------33333333-1111111111111111---------------33333333-1111111111111111|
D-33333333--------------------------------33333333-------------------------|

G--------------------------------------------------------------------|
D------------------------------------3-----3-----3-----3-1-----------|
A------------------33333333-11111111---1-1---1-1---1-1----3-1-0-0-0-0|
D-55555555-33333333--------------------------------------------------|

G------------------------|
D---------5-3-2----------|
A-4-4-4-4-------5-3-2----|
D---------------------5-3|Beast In The Harlot - Avenged Sevenfold

This is how I play it. Its A little easyer (Chorus and Verse wise)


Tuning: Drop D (D,A,D,G)

   Intro


G---------------------------------------------------------------|
D---------------------------------------------2-3-3-3-3-3-3-3-3-|
A-9-9-9-9-9-9-9/5-5-5-5-5-5-4-4-4-4-4-4-3-3-5-------------------|
D---------------------------------------------------------------|

G-------------------------------|
D-------------------------------|
A-4-4-4-4-4-4-3/1-1-1-1-1-1-1-1~|
D-------------------------------|

      Syn comes in here (2nd one not first)
G---|---|---|---|---|
D---|---|---|---|---|
A---|---|---|---|---|
D-0~|-0~|-0~|-0~|-0~|

 2x
G--------------------------------------------------------------------|
D--------------------------------------------------------------------|
A--------------------------------------------------------------------|
D-0-0-3-0-0-5-0-0-6-0-0-5-0-0-3-5-0-0-3-0-0-5-0-0-6-0-0-3-0-0-5-0-0-6|

Verse
G--------------------------------------------------------------------|
D--------------------------------------------------------------------|
A--------------------------------------------------------------------|
D-0-0-3-0-0-5-0-0-6-0-0-5-0-0-3-5-0-0-3-0-0-5-0-0-6-0-0-3-0-0-5-0-0-6|2x

G------------|
D------------|
A-1~-----0-1-|
D----5-6-----|

G--------------------------------------------------------------------|
D--------------------------------------------------------------------|
A--------------------------------------------------------------------|
D-0-0-3-0-0-5-0-0-6-0-0-5-0-0-3-5-0-0-3-0-0-5-0-0-6-0-0-3-0-0-5-0-0-6|2x

G-------------------|
D-------------------|
A-1~-----0-1-0-1-2-3|
D----5-6------------|

Chours

G--------------------------------------------------------------------------|
D------------------------------------532-----------------------------------|
A---------33333333-1111111111111111---------------33333333-1111111111111111|
D-33333333--------------------------------33333333-------------------------|

G--------------------------------------------------------------------|
D------------------------------------3-----3-----3-----3-1-----------|
A------------------33333333-11111111---1-1---1-1---1-1----3-1-0-0-0-0|
D-55555555-33333333--------------------------------------------------|

G------------------------|
D---------5-3-2----------|
A-4-4-4-4-------5-3-2----|
D---------------------5-3|

Solo
G--------------------------------------------------------------------|
D--------------------------------------------------------------------|
A--------------------------------------------------------------------|
D-0-0-3-0-0-5-0-0-6-0-0-5-0-0-3-5-0-0-3-0-0-5-0-0-6-0-0-3-0-0-5-0-0-6|1x

G------------|
D------------|
A-1~-----0-1-|
D----5-6-----|

G--------------------------------------------------------------------|
D--------------------------------------------------------------------|
A--------------------------------------------------------------------|
D-0-0-3-0-0-5-0-0-6-0-0-5-0-0-3-5-0-0-3-0-0-5-0-0-6-0-0-3-0-0-5-0-0-6|

G-------------------|
D-------------------|
A-1~-----0-1-0-1-2-3|
D----5-6------------|

G--------------------------------------------------------------------------|
D------------------------------------532-----------------------------------|
A---------33333333-1111111111111111---------------33333333-1111111111111111|
D-33333333--------------------------------33333333-------------------------|

G--------------------------------------------------------------------|
D------------------------------------3-----3-----3-----3-1-----------|
A------------------33333333-11111111---1-1---1-1---1-1----3-1-0-0-0-0|
D-55555555-33333333--------------------------------------------------|

G------------------------|
D---------5-3-2----------|
A-4-4-4-4-------5-3-2----|
D---------------------5-3|


Verse
G--------------------------------------------------------------------|
D--------------------------------------------------------------------|
A--------------------------------------------------------------------|
D-0-0-3-0-0-5-0-0-6-0-0-5-0-0-3-5-0-0-3-0-0-5-0-0-6-0-0-3-0-0-5-0-0-6|2x

G------------|
D------------|
A-1~-----0-1-|
D----5-6-----|

G--------------------------------------------------------------------|
D--------------------------------------------------------------------|
A--------------------------------------------------------------------|
D-0-0-3-0-0-5-0-0-6-0-0-5-0-0-3-5-0-0-3-0-0-5-0-0-6-0-0-3-0-0-5-0-0-6|2x

G-------------------|
D-------------------|
A-1~-----0-1-0-1-2-3|
D----5-6------------|

Chours

G--------------------------------------------------------------------------|
D------------------------------------532-----------------------------------|
A---------33333333-1111111111111111---------------33333333-1111111111111111|
D-33333333--------------------------------33333333-------------------------|

G--------------------------------------------------------------------|
D------------------------------------3-----3-----3-----3-1-----------|
A------------------33333333-11111111---1-1---1-1---1-1----3-1-0-0-0-0|
D-55555555-33333333--------------------------------------------------|

G------------------------|
D---------5-3-2----------|
A-4-4-4-4-------5-3-2----|
D---------------------5-3|

Bridge
G---|
D---|
A---| 8x
D-0~|


G-------------------------------|
D-------------------------------|
A-5-3---------------------------|8x
D-----3-5-6-5-3-0-00-3-5-6-5-3-0|


G-------------------|
D-------------------|
A-1~-----0-1-0-1-2-3|
D----5-6------------|

Chours

G--------------------------------------------------------------------------|
D------------------------------------532-----------------------------------|
A---------33333333-1111111111111111---------------33333333-1111111111111111|
D-33333333--------------------------------33333333-------------------------|

G--------------------------------------------------------------------|
D------------------------------------3-----3-----3-----3-1-----------|
A------------------33333333-11111111---1-1---1-1---1-1----3-1-0-0-0-0|
D-55555555-33333333--------------------------------------------------|

G------------------------|
D---------5-3-2----------|
A-4-4-4-4-------5-3-2----|
D---------------------5-3|


G------------------------------------------------------------------------|
D-----------------------------------754----------------------------------|
A---------77777777-5555555555555555-------------77777777-5555555555555555|
D-77777777------------------------------77777777-------------------------|

G-------------------------------------------------------------|
D------------------------------------9---9---9----9-7---------|
A------------------77777777-55555555--7-7-7-7-7-7-----9-7-----|
D-99999999-77777777-------------------------------------------|


G--------------7777|
D-----3333-5555----|
A-4444-------------|
D------------------|

Outro
G---------------------------------------------------------------|
D---------------------------------------------2-3-3-3-3-3-3-3-3-|
A-9-9-9-9-9-9-9/5-5-5-5-5-5-4-4-4-4-4-4-3-3-5-------------------|
D---------------------------------------------------------------|

G-------------------------------|
D-------------------------------|
A-4-4-4-4-4-4-3/1-1-1-1-1-1-1-1~|
D-------------------------------|
									


911Tabs.com - tabs search engine
More "Beast And The Harlot" tabs @ 911Tabs

A Guide to Tab NotationGuitar TabsGuitar ResourcesGuitar TabsPrivacy PolicyGuitar TabsContact

Online Guitar Lessons

Avenged Sevenfold Guitar Tabs - Over 200,000 chords, guitar and bass tabs with video. Find tabs, video guitar lessons and more.