Music Guitar Tab, Tabs with MP3, ringtones, ringtone, concert tickets, guitar lessons, guitar tabs easy, guitar hero

Guitar Tabs Guitar Chords Bass Tabs
 Web Guitar Tabs
Guitar Lessons
 
Lyrics abcdefghijklmnopqrstuvwxyz # Top 100 Lyrics

Guitar Tabs
Guitar Tab






click on, click off


Tab for "Beast And The Harlot" - Avenged Sevenfold Rating 4Print Guitar Tabs
select alternative YouTube videos below...
Tweak the search term to refine the YouTube video results:         
Share on Facebook

Learn to play this song and others via online guitar lessons @ JamPlay.com!

i'm pretty sure this is right!
the brackets mean dont play the second time!

intro
|------------------------------------------------------------------|
|------------------------------------------------------------------|
|--9----5----4----3----8-8--4-44--3-1-------0----------------------|
|-------------------------------------------------------0~~~-------|

verse
|-------------------------------------|------------------------------------|
|-------------------------------------|------------------------------------|
|-------------------------------------|------------------------------------|
|-0000-3-0000-5-0000-6-0000-5-0000-3-5|0000-3-0000-5-0-6-0000-3-0000-5-00-6|

|-------------------------------------|------------------------------------|
|-------------------------------------|------------------------------------|
|-------------------------------------|------------------------------------|
|-0000-3-0000-5-0000-6-0000-5-0000-3-5|0000-3-0000-5-0-6-0000-3-0000-3-00-3|

|--------|--------------|
|--------|--------------|
|--------|--------------|
|-8------|-5-6-7-8------|

|-------------------------------------|------------------------------------|
|-------------------------------------|------------------------------------|
|-------------------------------------|------------------------------------|
|-0000-3-0000-5-0000-6-0000-5-0000-3-5|0000-3-0000-5-0-6-0000-3-0000-5-00-6|

|-------------------------------------|------------------------------------|
|-------------------------------------|------------------------------------|
|-------------------------------------|------------------------------------|
|-0000-3-0000-5-0000-6-0000-5-0000-3-5|0000-3-0000-5-0-6-0000-3-0000-3-00-3|

|--------|-----------------------------|
|--------|-----------------------------|
|--------|-----------------------------|
|-8------|-5-6-7-8-7-8-9 10------------|

chorus
|----------------------------------------------------------------------|
|-------------------------------------------------------(5-3-2-3)------|
|----------------3-3-33--3-3-33--1-1-11--1-1-11--1-1-11----------------|
|-3-3-33--3-3-33-------------------------------------------------------|x2

|--------------------------------------------------------------------------|
|--------------------------------------------------------------------------|
|-------------------------------3-3-33--3-3-33--1-1-11--1-1-11-------------|
|-5-5-55--5-5-55-3-3-33--3-3-33--------------------------------------------|

|--------------------------------------------------------------------------|
|-3----3----3----3-1---------------------5-3-2-----------------------------|
|---11---11---11-----3-1--0-0-00--4-4-44-------5-3-2-----------------------|
|----------------------------------------------------5-3-------------------|

break
|--------|-----------------------------|
|--------|-----------------------------|
|--------|-----------------------------|
|-8------|-5-6-7-8-7-8-9 10------------|

during solo(plays chorus)
|----------------------------------------------------------------------|
|-------------------------------------------------------(5-3-2-3)------|
|----------------3-3-33--3-3-33--1-1-11--1-1-11--1-1-11----------------|
|-3-3-33--3-3-33-------------------------------------------------------|x2

|--------------------------------------------------------------------------|
|--------------------------------------------------------------------------|
|-------------------------------3-3-33--3-3-33--1-1-11--1-1-11-------------|
|-5-5-55--5-5-55-3-3-33--3-3-33--------------------------------------------|

|--------------------------------------------------------------------------|
|-3----3----3----3-1---------------------5-3-2-----------------------------|
|---11---11---11-----3-1--0-0-00--4-4-44-------5-3-2-----------------------|
|----------------------------------------------------5-3-------------------|

verse
|-------------------------------------|------------------------------------|
|-------------------------------------|------------------------------------|
|-------------------------------------|------------------------------------|
|-0000-3-0000-5-0000-6-0000-5-0000-3-5|0000-3-0000-5-0-6-0000-3-0000-5-00-6|

|-------------------------------------|------------------------------------|
|-------------------------------------|------------------------------------|
|-------------------------------------|------------------------------------|
|-0000-3-0000-5-0000-6-0000-5-0000-3-5|0000-3-0000-5-0-6-0000-3-0000-3-00-3|

|--------|--------------|
|--------|--------------|
|--------|--------------|
|-8------|-5-6-7-8------|

|-------------------------------------|------------------------------------|
|-------------------------------------|------------------------------------|
|-------------------------------------|------------------------------------|
|-0000-3-0000-5-0000-6-0000-5-0000-3-5|0000-3-0000-5-0-6-0000-3-0000-5-00-6|

|-------------------------------------|------------------------------------|
|-------------------------------------|------------------------------------|
|-------------------------------------|------------------------------------|
|-0000-3-0000-5-0000-6-0000-5-0000-3-5|0000-3-0000-5-0-6-0000-3-0000-3-00-3|

|--------|-----------------------------|
|--------|-----------------------------|
|--------|-----------------------------|
|-8------|-5-6-7-8-7-8-9 10------------|

chorus
|----------------------------------------------------------------------|
|-------------------------------------------------------(5-3-2-3)------|
|----------------3-3-33--3-3-33--1-1-11--1-1-11--1-1-11----------------|
|-3-3-33--3-3-33-------------------------------------------------------|x2

|--------------------------------------------------------------------------|
|--------------------------------------------------------------------------|
|-------------------------------3-3-33--3-3-33--1-1-11--1-1-11-------------|
|-5-5-55--5-5-55-3-3-33--3-3-33--------------------------------------------|

|--------------------------------------------------------------------------|
|-3----3----3----3-1---------------------5-3-2-----------------------------|
|---11---11---11-----3-1--0-0-00--4-4-44-------5-3-2-----------------------|
|----------------------------------------------------5-3-------------------|

bridge
|----|----|----|----|----|----|----|----|
|----|----|----|----|----|----|----|----|
|----|----|----|----|----|----|----|----|
|-0~-|-0~-|-0~-|-0~-|-0~-|-0~-|-0~-|-0~-|

|-----------------|-------------------|
|-----------------|-------------------|
|-5-3-------------|-------------------|
|-----3-5-6-5-3-5-|--0-3-4-5-4-3-0----|

break
|--------|-----------------------------|
|--------|-----------------------------|
|--------|-----------------------------|
|-8------|-5-6-7-8-7-8-9 10------------|

chorus
|----------------------------------------------------------------------|
|-------------------------------------------------------(5-3-2-3)------|
|----------------3-3-33--3-3-33--1-1-11--1-1-11--1-1-11----------------|
|-3-3-33--3-3-33-------------------------------------------------------|x2

|--------------------------------------------------------------------------|
|--------------------------------------------------------------------------|
|-------------------------------3-3-33--3-3-33--1-1-11--1-1-11-------------|
|-5-5-55--5-5-55-3-3-33--3-3-33--------------------------------------------|

|--------------------------------------------------------------------------|
|-3----3----3----3-1---------------------5-3-2-----------------------------|
|---11---11---11-----3-1--0-0-00--4-4-44-------5-3-2-----------------------|
|----------------------------------------------------5-3-------------------|

chorus up a key
|--------------------------------------------------------5-3-2-3)----|
|----------------2-2-22--2-2-22--0-0-00--0-0-00---(5-3-2-3-----------|
|-0-0-00--0-0-00-----------------------------------------------------|
|--------------------------------------------------------------------|x2

|--------------------------------------------------------------------------|
|----------------0-0-00--0-0-00-----------------2-2-22--2-2-22-------------|
|-2-2-22--2-2-22----------------0-0-00--0-0-00-----------------------------|
|--------------------------------------------------------------------------|

|-4-----4-----4-----4-2---------------------------7-7-77-------------------|
|---2-2---2-2---2-2-----4-2--------3-3-33--5-5-55--------------------------|
|---------------------------4-4-44-----------------------------------------|
|--------------------------------------------------------------------------|

outro
|------------------------------------------------------|
|------------------------------------------------------|
|--9----5----4----3----8-8--4-44--3-1-----------0~-----|
|------------------------------------------------------|

have a nice day!
									


911Tabs.com - tabs search engine
More "Beast And The Harlot" tabs @ 911Tabs

A Guide to Tab NotationGuitar TabsGuitar ResourcesGuitar TabsPrivacy PolicyGuitar TabsContact

Online Guitar Lessons

Avenged Sevenfold Guitar Tabs - Over 200,000 chords, guitar and bass tabs with video. Find tabs, video guitar lessons and more.