Music Guitar Tab, Tabs with MP3, ringtones, ringtone, concert tickets, guitar lessons, guitar tabs easy, guitar hero

Guitar Tabs Guitar Chords Bass Tabs
 Web Guitar Tabs
Guitar Lessons
 
Lyrics abcdefghijklmnopqrstuvwxyz # Top 100 Lyrics

Guitar Tabs
Guitar Tab






click on, click off


Tab for "Bat Country Solo" - Avenged Sevenfold Rating 4Print Guitar Tabs
select alternative YouTube videos below...
Tweak the search term to refine the YouTube video results:         
Share on Facebook

Learn to play this song and others via online guitar lessons @ JamPlay.com!

This is my second tab.
This solo is very long (about
two minutes)
and a little compicated.

Drop D tuning  DADGBE

huge bend on the~
---------------------------------|
---15~---9~---9----8~--8---------|
---17~---11~--11---10~-10--------|
---------------------------------|
---------------------------------|
---------------------------------|


It gets faster here
--------------------------------|
---------------------10-13-15---|
-----------10-12-13-------------|
---12--12-----------------------|
--------------------------------|
--------------------------------|

2nd guitar does this while lead guitar
is playing the above.
--------------------------------|
-15---15v-15--------------------|
--------------------------------|
--------------------------------|
--------------------------------|
------------------0-0-----------|

1st guitar
----------------------------------|
----------------------------------|
----------------------------------|
----------------------------------|
-5-5-5-5-5-5-5-5------------------|
------------------6-6-6-6-6-6-6-6-|

-----------------------------------|
-----------------------------------|
-----------------------------------|
-----------------------------------|
-----------------------------------|
-0-0-0-0-0-0-0-0--0-3-5-6--6-6-6-6-|

First guitar repeats (3xs) the above two While
2nd guitar plays the next six.
Very fast.
----------------------------------|
----------------------------------|
--5b--5b--5b--5b--5b--5-----------|
----------------------------------|
----------------------------------|
----------------------------------|

-------------------------------------------|
----------13-13-13b-13b-13-13-10-----------|
-17v-17---------------------------13-13-19-|
-------------------------------------------|
-------------------------------------------|
-------------------------------------------|

------------------------------------|
------------------------------------|
-19v-19-13-10-13-22bv-22-22---------|
------------------------------------|
------------------------------------|
------------------------------------|

--17-17-16-15-------15---------------|
----------------18-------18b--18b----|
-------------------------------------|
-------------------------------------|
-------------------------------------|
-------------------------------------|

-18-17-13----------------------------|
-------------------------------------|
-----------13-13-13-13-17-17-17-17---|
-------------------------------------|
-------------------------------------|
-------------------------------------|

-------------------------------------|
-15-15b-15--------15-18---18v--------|
-----------13------------------------|
-------------------------------------|
-------------------------------------|
-------------------------------------|

And finally the 1st guitar plays this
-10-----------13------------12---------|
------------------10-10-10-------------|
-----10-10-10--------------------------|
---------------------------------------|
---------------------------------------|
---------------------------------------|

-------15-----------17-18-17-16-17-18-17-16-12-|
-9-9-9-----14-14-14----------------------------|
-----------------------------------------------|
-----------------------------------------------|
-----------------------------------------------|
-----------------------------------------------|

This is the finish 1st guitar
-10-11-12-13-12-11-10-11-12-13-12-11-12-13-14--|
-----------------------------------------------|
-----------------------------------------------|
-----------------------------------------------|
-----------------------------------------------|
-----------------------------------------------|

-15-14-13-12-13-14-15-14-13-13-15-16-17-16-15-|
----------------------------------------------|
----------------------------------------------|
----------------------------------------------|
----------------------------------------------|
----------------------------------------------|

-13-15-16-17-16-15-17-18-21-18-17---------------17-18-20-|
-----------------------------------18-17-18-20-----------|
---------------------------------------------------------|
---------------------------------------------------------|
---------------------------------------------------------|
---------------------------------------------------------|

This will probably take alot of practice for some people.
									


911Tabs.com - tabs search engine
More "Bat Country Solo" tabs @ 911Tabs

A Guide to Tab NotationGuitar TabsGuitar ResourcesGuitar TabsPrivacy PolicyGuitar TabsContact

Online Guitar Lessons

Avenged Sevenfold Guitar Tabs - Over 200,000 chords, guitar and bass tabs with video. Find tabs, video guitar lessons and more.