Music Guitar Tab, Tabs with MP3, ringtones, ringtone, concert tickets, guitar lessons, guitar tabs easy, guitar hero

Guitar Tabs Guitar Chords Bass Tabs
 Web Guitar Tabs
Guitar Lessons
 
Lyrics abcdefghijklmnopqrstuvwxyz # Top 100 Lyrics

Guitar Tabs
Guitar Tab






click on, click off


Tab for "Bat Country" - Avenged Sevenfold Rating 4Print Guitar Tabs
select alternative YouTube videos below...
Tweak the search term to refine the YouTube video results:         
Share on Facebook

Learn to play this song and others via online guitar lessons @ JamPlay.com!

Band: Avenged Sevenfold
Song: Bat Country
Album: City Of Evil

I have to give credit to the people who tabbed out this song before I got to it.
I basically studied all 3, and put it together like a puzzle, with a few new parts
I added that neither had or it was sloppy.

(0:07)
G:------------------------------------------------------------------------|
D:------------------------------------------------------------------------|
A:-5-5-5---5-5-------------------------------------5~---5-5---------------|
D:-------------6-6-6-6---6-0--0--0--5-3-5/6\5-3-0-----------6-6-6-6---6-0-|

  --------------------:
  --------------------:
  --------------------:
  -0--0--5-3-5/6\5-3-0:

(0:15)
G:-------------------------:
D:-------------------------:  x2
A:-5~----------------------:
E:------6~-----5~---3~-----:

(0:23)
G:---------------------------------:
D:---------------------------------:  x2
A:-55555555------------------------:
E:---------666666660000000000000000:

(0:30)
G:-----------------------------------------------------------------:
D:-----------------------------------------------------------------:
A:-55555555----------------444444445555555577777777----------------:
E:---------6666666655555555------------------------3333333322222222:

(0:38)
G:--------------------------------------------------------:
D:-----------------------------------------------------2-3:  x2
A:-5--5--5-5------------------3--3--3-3-3-3-------3--0----:
E:-------------0-5-5-3--0-3-0---------------3-3-0---------:

(0:53)
G:---------------------------------:
D:---------------------------------:  x4
A:-55555555------------------------:
D:---------666666660000000000000000:

(1:09)
G:-----------------------------------------------------------------:
D:-----------------------------------------------------------------:
A:-55555555----------------444444445555555577777777----------------:
D:---------6666666655555555------------------------3333333322222222:

(1:16)
G:--------------------------------------------------------:
D:-----------------------------------------------------2-3:  x2
A:-5--5--5-5------------------3--3--3-3-3-3-------3--0----:
D:-------------0-5-5-3--0-3-0---------------3-3-0---------:

(1:32)
G:-------------------------------------------------------------------4-----|
D:------------2h3-5--5-5--3h5-3-----------------------------7~---5-7---5~--|
A:-5-5-5-5-5--------------------3--3-3--3-2h3-7--7-7--7-5h7----------------|
D:-------------------------------------------------------------------------|

  -----2------------------------2-----------------------------------------|
  -3-5---3~---5/7-5-3h5-3-2-3-2---3------2h3-5~---3h5-3-------------------|
  ----------------------------------5--5----------------3~---3-2h3-7~---7-|
  ------------------------------------------------------------------------|

  -------------4----------2-----------------------:
  ----7~---5-7---5~---3-5---3~---5/7-5-3h5-3-2-3-2:
  5h7---------------------------------------------:
  ------------------------------------------------:

(2:03)
G:-------------------------:
D:-------------------------:  x4
A:-5~----------------------:
D:------6~-----5~---3~-----:

(2:18)
G:-----------------------:
D:-----------------------:  x2
A:-5~--------------------:
D:------6~-----5~--(0)---:

(2:26)
G:--------------------------------:
D:--------------------------------:  x4
A:-55555555-----------------------:
D:---------66666666000000000356-66:

(2:41)
G:------------------------------------------------------------------:
D:------------------------------------------------------------------:
A:-55555555----------------444444445555555577777777-----------------:
D:---------6666666655555555------------------------33333333222222220:

(2:49-2:52) no bass

(2:53)
G:----------------------------------------------:
D:----------------------------------------------:  x2
A:-------------------33333~---00000~---44444~---:
D:-00000~---55555~------------------------------:

(3:08)
G:-----------------------------------------------:
D:-----------------------------------------------:
A:-------------------------------------5--4--8--7:
D:-0~---7-5-3--2~---8-7-5--7--5--3--2------------:

(3:16)
G:---------------------------------:
D:---------------------------------:  x4
A:-55555555------------------------:
D:---------666666660000000000000000:

(3:30)
G:-------------------------------------------------------------------------|
D:-------------------------------------------------------------------------|
A:--------------3~-----------------------------------------3~-------1~-----|
D:-0-2-3~----------------5~-------0~-----000000-2-3~-----------------------|

  -----------------------------:
  -----------------7---77777777:
  ------0~-----0000-000--------:
  -----------------------------:

(3:50)
G:-------------------------------------------------------:
D:----------------------------------------------------2-3:  x2
A:-5--5--5-5-----------------3--3--3-3-3-3-------3--0----:
D:------------0-5-5-3--0-3-0---------------3-3-0---------:

(4:05)
G:-------------------------------------------------------------------4-----|
D:------------2h3-5--5-5--3h5-3-----------------------------7~---5-7---5~--|
A:-5-5-5-5-5--------------------3--3-3--3-2h3-7--7-7--7-5h7----------------|
D:-------------------------------------------------------------------------|

  -----2------------------------2-----------------------------------------|
  -3-5---3~---5/7-5-3h5-3-2-3-2---3------2h3-5~---3h5-3-------------------|
  ----------------------------------5--5----------------3~---3-2h3-7~---7-|
  ------------------------------------------------------------------------|

  -------------4----------2-----------------------:
  ----7~---5-7---5~---3-5---3~---5/7-5-3h5-3-2-3-2:
  5h7---------------------------------------------:
  ------------------------------------------------:

(4:36)
G:-------------------------------------------------------------------------|
D:-----------------5-5-5-5-5-5-5-5-------------------------5-----5-7-7-7-7-|
A:-5-5-5-5-5-5-5-5-----------------3-3-3-3-3-3-2-3-7-7-7-7---5-7-----------|
D:-------------------------------------------------------------------------|

  --------------------7-7---------------------------------------------------|
  7-7-7-7-5-5-5-5-5-5-----3-3-3-3-3-3-3-3-3-3--3--------------------------5-|
  --------------------------------------------------------5-5-5-5-5-5-5-5---|
  -----------------------------------------------0-0--3333------------------|

  -------------------------------------------------------------------------|
  -5-5-5-5-5-5-5-------------------------5-----5-7-7-7-7-7-7-7-7-5-5-5-5-5-|
  ---------------3-3-3-3-3-3-2-3-7-7-7-7---5-7-----------------------------|
  -------------------------------------------------------------------------|

  ---------------:
  5-5-5-3~-------:
  ---------------:
  ---------------:
									


911Tabs.com - tabs search engine
More "Bat Country" tabs @ 911Tabs

A Guide to Tab NotationGuitar TabsGuitar ResourcesGuitar TabsPrivacy PolicyGuitar TabsContact

Online Guitar Lessons

Avenged Sevenfold Guitar Tabs - Over 200,000 chords, guitar and bass tabs with video. Find tabs, video guitar lessons and more.