Music Guitar Tab, Tabs with MP3, ringtones, ringtone, concert tickets, guitar lessons, guitar tabs easy, guitar hero

Guitar Tabs Guitar Chords Bass Tabs
 Web Guitar Tabs
Guitar Lessons
 
Lyrics abcdefghijklmnopqrstuvwxyz # Top 100 Lyrics

Guitar Tabs
Guitar Tab






click on, click off


Tab for "And All Things Will End" - Avenged Sevenfold Rating 4Print Guitar Tabs
select alternative YouTube videos below...
Tweak the search term to refine the YouTube video results:         
Share on Facebook

Learn to play this song and others via online guitar lessons @ JamPlay.com!

Song: And All Things Will End
Artist: Avenged Sevenfold
Album: Waking the Fallen
Tab by: deathbat411
Tuning: Drop D (low to high: DADG)

I play this song in a completely different way than version one
so here it is
This is a crazy cool. have fun!  :)  \m/ rock on!

Riff A (after guitar slow intro)
G|-----------6h7----------6h7----------6h7-------------------6h7p6-|
D|----------------------------------------8-7--7------------5------|
A|-------------------------------------------10-10-8-7-5-7-8-------|
D|-0000000000---0000000000---0000000000----------------------------| 2x

Fill A
G|----------| 
D|----------|
A|----------|
D|-(0)----0-| 1x

Riff B
G|--------------------------------------------------------|
D|--------------------------------------------------------|
A|--------------------------------------------------------|
D|-0000000000-3333333333-555555-666666-5-6-0000000000-3-5-| 2x

Chorus A
G|------------------------------------------|
D|------------------------------------------|
A|-(1)-1------------------------------------|
D|-------(3)-3-0-0000000000-(3)-(3)-(5)-0-0-| 1x

Riff A 1x
Fill A 1x
Riff B 2x

Chorus B
G|-------------------------------------------------------|
D|-------------------------------------------------------|
A|-(1)-1-------------------------------------------------|
D|-------(3)-3-0-0000000000-(3)-(3)-(5)-5-5-0-0000000000-| 1x

Chorus A 1x

Fill B  
G|------------------------|
D|------------------------|
A|------------------------|
D|-(0)--------------------|

No bass for whole slow part

Bridge A 
G|---------------------------------------|
D|---------------------------------------|
A|----5----------5----------5------------|
D|-00---(6)--0-0---(6)--0-0---(7)--------| 4x

Guitar plays part of riff A 1x then play....

Fill B
G|--------------------6h7p6-|
D|-8-7--7------------5------|
A|----10-10-8-7-5-7-8-------|
D|--------------------------| 1x

Bridge B
G|-------------------------5555-------------------------------------|
D|-----777755557777----7777----7777----555533332222----3333----2222-|
A|-5555------------8888------------3333------------1111----0000-----| 
D|------------------------------------------------------------------| 2x

Fill C
G|-------|
D|-------|
A|-------|
D|-00000-|

Chorus B 1x
Chorus A 1x
Chorus B 1x
Chorus A 1x

Outro (slowly fading out, slowing down and changing pitch)
G|------------------------------------------|
D|------------------------------------------|
A|------------------------------------------|
D|-5-55-8-88-3-33-1-11-1111111111-000000000-|
(keep playing until faded out)

END  have super lots fun   :)

Key
( ) - let ring
h - hammer on
p - pull off

									


911Tabs.com - tabs search engine
More "And All Things Will End" tabs @ 911Tabs

A Guide to Tab NotationGuitar TabsGuitar ResourcesGuitar TabsPrivacy PolicyGuitar TabsContact

Online Guitar Lessons

Avenged Sevenfold Guitar Tabs - Over 200,000 chords, guitar and bass tabs with video. Find tabs, video guitar lessons and more.