Music Guitar Tab, Tabs with MP3, ringtones, ringtone, concert tickets, guitar lessons, guitar tabs easy, guitar hero

Guitar Tabs Guitar Chords Bass Tabs
 Web Guitar Tabs
Guitar Lessons
 
Lyrics abcdefghijklmnopqrstuvwxyz # Top 100 Lyrics

Guitar Tabs
Guitar Tab






click on, click off


Tab for "And All Things Will End" - Avenged Sevenfold Rating 4Print Guitar Tabs
select alternative YouTube videos below...
Tweak the search term to refine the YouTube video results:         
Share on Facebook

Learn to play this song and others via online guitar lessons @ JamPlay.com!

...AND ALL THINGS WILL END (Bassline)
As recorded by Avenged Sevenfold
(From the 2003 Album WAKING THE FALLEN)


Gtr I (D A D G) - 'Untitled'


 Intro
  Q=82
 4/4
  Gtr I
|-----|
|-----|
|-----|
|-----|


|-------------------------------|---------------------------------|
|-------------------------------|---------------------------------|
|-------------------------------|---------------------------------|
|-0-0-0-0-0-0-0-0-0-0-0-0-0-0-0-|-(0)-0-0-0-0-0-0-0-0-0-0-0-0-0-0-|


|---------------------------------|---------------------------------|
|---------------------------------|---------------------------------|
|-------------------------------5-|-(5)-3-0-3-1-0-----------0-5-4---|
|-(0)-0-0-0-0-0-0-0-0-0-0-0-0-0---|---------------5-0-2-3-5-------0-|


|---------------------------------|---------------------------------|
|---------------------------------|---------------------------------|
|---------------------------------|---------------------------------|
|-(0)-0-0-0-0-0-0-0-0-0-0-0-0-0-0-|-(0)-0-0-0-0-0-0-0-0-0-0-0-0-0-0-|


                                                                   2/4
|-------------------------------|---------------------------------|----------|
|-------------------------------|---------------------------------|----------|
|-----------------------------5-|-(5)-3-0-3-1-0-----------0-5-4---|----------|
|-0-0-0-0-0-0-0-0-0-0-0-0-0-0---|---------------5-0-2-3-5-------0-|-(0)--0---|


   Verse
   4/4
||--------------------------------|---------------------------------|
||o-------------------------------|---------------------------------|
||o-------------------------------|---------------------------------|
||--0-0-0-0-0-0-0-0-0-0-0-0-0-0-3-|-(3)-3-3-3-3-3-3-3-3-3-3-3-3-3-5-|


|----------------------------------|
|----------------------------------|
|----------------------------------|
|-(5)-5-5-5-5-5-6-(6)-6-6-6-6-/8-0-|


 1.                                2.
|--------------------------------||-----------------------------|
|-------------------------------o||-----------------------------|
|-------------------------------o||-----------------------------|
|-(0)-0-0-0-0-0-0-0-0-0-0-3-5-0--||-0-0-0-0-0-0-0-0-0-0-0-3-5-7-|


 Chorus
|-------------------------|---------------------------------|
|-------------------------|---------------------------------|
|-------------------------|---------------------------------|
|-8-8-8-8-8-3-(3)-3-3-5-0-|-(0)-0-0-0-0-0-0-0-0-0-0-0-0-0-8-|


|-----------------------|---------------------------------|
|-----------------------|---------------------------------|
|-----------------------|---------------------------------|
|-(8)-8-8-8-8-3---3-5-0-|-(0)-0-0-0-0-0-0-0-0-0-0-0-0-0-0-|


|----------------------------------|
|----------------------------------|
|----------------------------------|
|-(0)-0-0-0-0-0-0-0-0-0-0-0-0-0-0--|


                                                                     2/4
|---------------------------------|---------------------------------|----------|
|---------------------------------|---------------------------------|----------|
|-------------------------------5-|-(5)-3-0-3-1-0-----------0-5-4---|----------|
|-(0)-0-0-0-0-0-0-0-0-0-0-0-0-0---|---------------5-0-2-3-5-------0-|-(0)--0---|


   Verse
   4/4
||--------------------------------|---------------------------------|
||o-------------------------------|---------------------------------|
||o-------------------------------|---------------------------------|
||--0-0-0-0-0-0-0-0-0-0-0-0-0-0-3-|-(3)-3-3-3-3-3-3-3-3-3-3-3-3-3-5-|


|----------------------------------|
|----------------------------------|
|----------------------------------|
|-(5)-5-5-5-5-5-6-(6)-6-6-6-6-/8-0-|


 1.                                2.
|--------------------------------||-----------------------------|
|-------------------------------o||-----------------------------|
|-------------------------------o||-----------------------------|
|-(0)-0-0-0-0-0-0-0-0-0-0-3-5-0--||-0-0-0-0-0-0-0-0-0-0-0-3-5-7-|


   Chorus
||--------------------------|----------------------------------|
||o-------------------------|----------------------------------|
||o-------------------------|----------------------------------|
||--8-8-8-8-8-3-(3)-3-3-5-0-|-(0)-0-0-0-0-0-0-0-0-0-0-0-0-0-8--|


  1.
|---------------------------|----------------------------------||
|---------------------------|---------------------------------o||
|---------------------------|---------------------------------o||
|-(8)-8-8-8-8-3-(3)-3-3-5-0-|-(0)-0-0-0-0-0-0-0-0-0-0-0-0-0-8--||


  2.
|-----------------------|--------|
|-----------------------|--------|
|-----------------------|--------|
|-(8)-8-8-8-8-3---3-5-0-|-(0)----|


 Interlude
  >
|----------|------------|------------|--------|
|----------|------------|------------|--------|
|----------|------------|------------|--------|
|-0--------|-(0)--------|-(0)--------|-(0)----|


|-----|
|-----|
|-----|
|-----|


|------------|---------------|---------3-2---|-------------|
|------------|---------------|-2---2-2-----2-|-0---0-0-----|
|-5---5-5----|-3---3-3-3S1S3-|---------------|----------3--|
|------------|---------------|---------------|-------------|
|


|---------------|------------|--------------2-|-2----|
|---------------|------------|----------------|------|
|-1---1-1S3S1-0-|------------|-0---0-0--------|------|
|---------------|-5----3--5--|----------------|------|
|


|------------|---------------|---------3-2---|---------------|
|------------|---------------|-2---2-2-----2-|-0---0--0------|
|-5---5-5----|-3---3-3-3S1S3-|---------------|------------3--|
|------------|---------------|---------------|---------------|
|

|--------------------|------------------|---------------------2-|--2----|
|--------------------|------------------|-----------------------|-------|
|--1---1-1S3S==1---0-|------------------|--0-------0-0----------|-------|
|--------------------|--5----3----5-----|-----------------------|-------|
|

|--------------|--------------|---------3-2---|-----------------|
|--------------|--------------|-2---2-2-----2-|-0---0--0--------|
|-5---5-5-5----|-3---3-3-3----|---------------|------------3----|
|--------------|--------------|---------------|-----------------|


|--------------------|---------------|-------------------|-----------------|
|--------------------|---------------|-------------------|-----------------|
|--1---1-1-3---1---0-|---------------|--0---0----------0-|------------0----|
|--------------------|--5-----3---5--|--------2----------|--7--7S15\-------|


   Breakdown
||-------------------------|----------------------------||
||o------------------------|------------------------/7-o||
||o------/5---------/7-----|-----/8-----5-7-8-7-5-8----o||
||--0-0-----7-0--0-----7-0-|--0-----7-7-----------------||


||-------------------------|----------------------------||
||o------------------------|------------------------/7-o||
||o------/5---------/7-----|-----/8-----5-7-8-7-5-8----o||
||--0-0-----7-0--0-----7-0-|--0-----7-7-----------------||


|----------|-------------------------------|
|----------|-------------------------------|
|--------5-|-(5)-3-0-3-1-0-----------0-5-4-|
|----------|---------------5-0-2-3-5-------|


   Bridge
                      1.
    TPTPTPTPTPTPTPTP  TPTPTPTPTPTPTPTP
||------------------|------------------||
||o-----------------|-----------------o||
||o-----------------|-3-3-3-3-1-1-0-0-o||
||--0-0-0-0-3-3-3-3-|------------------||


  2.
  TPTPTPTPTPTPTP~
|-----------------|---------------------|
|-----------------|---------------------|
|-3-3-3-3-1-1-0-0-|---------------------|
|-----------------|-0-0-0-0-0-0-0-------|


   Chorus
||--------------------------|----------------------------------|
||o-------------------------|----------------------------------|
||o-------------------------|----------------------------------|
||--8-8-8-8-8-3-(3)-3-3-5-0-|-(0)-0-0-0-0-0-0-0-0-0-0-0-0-0-8--|


  1.
|---------------------------|----------------------------------||
|---------------------------|---------------------------------o||
|---------------------------|---------------------------------o||
|-(8)-8-8-8-8-3-(3)-3-3-5-0-|-(0)-0-0-0-0-0-0-0-0-0-0-0-0-0-8--||


  2.
|-----------------------|------------------------------------|
|-----------------------|------------------------------------|
|-----------------------|------------------------------------|
|-(8)-8-8-8-8-3---3-5-0-|-(0)-0-0-0-0-0-0-0-0-0-0-0-0-0-0-0--|


||--------------------------|---------------------|
||o-------------------------|---------------------|
||o-------------------------|---------------------|
||--8-8-8-8-8-3-(3)-3-3-5-0-|-(0)-0-0-0-0-0-0-0-8-|


  1.
|---------------------------|----------------------||
|---------------------------|---------------------o||
|---------------------------|---------------------o||
|-(8)-8-8-8-8-3-(3)-3-3-5-0-|-(0)-0-0-0-0-0-0-0-8--||


  2.
|-----------------------|--------||
|-----------------------|--------||
|-----------------------|--------||
|-(8)-8-8-8-8-3---3-5-0-|-(0)----||


   Outro
||------------|-----------|-----------------|------------------||
||o-----------|-----------|-----------------|-----------------o||
||o-----------|-----------|-----------------|-----------------o||
||--5----8----|-3----1----|-1-1-1-1-1-1-1-1-|-0-0-0-0-0-0-0-0--||


   Outro Solo
                                                               4x
||------------|-----------|-----------------|------------------||
||o-----------|-----------|-----------------|-----------------o||
||o-----------|-----------|-----------------|-----------------o||
||--5----8----|-3----1----|-1-1-1-1-1-1-1-1-|-0-0-0-0-0-0-0-0--||


  \0.25____________________________________________________________
|----------------|-----------|-----------------|------------------|
|----------------|-----------|-----------------|------------------|
|----------------|-----------|-----------------|------------------|
|-5---------8----|-3----1----|-1-1-1-1-1-1-1-1-|-0-0-0-0-0-0-0-0--|


  H.=H
  \0.5____________________________________________________________
|---------------|-----------|-----------------|------------------|
|---------------|-----------|-----------------|------------------|
|---------------|-----------|-----------------|------------------|
|-5--------8----|-3----1----|-1-1-1-1-1-1-1-1-|-0-0-0-0-0-0-0-0--|


  \0.75________________________\1____________________________________
|----------------|-----------|-------------------|------------------|
|----------------|-----------|-------------------|------------------|
|----------------|-----------|-------------------|------------------|
|-5---------8----|-3----1----|-1---1-1-1-1-1-1-1-|-0-0-0-0-0-0-0-0--|


  \1.5________________________\2__________________\2.5__________________
|---------------|-----------|-------------------|----------------------|
|---------------|-----------|-------------------|----------------------|
|---------------|-----------|-------------------|----------------------|
|-5--------8----|-3----1----|-1---1-1-1-1-1-1-1-|-0-----0-0-0-0-0-0-0--|


  Q=40
  \3____________________
|------------|--------*|
|------------|--------*|
|------------|--------*|
|-5----------|-(5)----*|

Tablature Legend
----------------
 h   - hammer-on
 p   - pull-off
 b   - bend
 pb  - pre-bend
 r   - bend release (if no number after the r, then release immediately)
 /\  - slide into or out of (from/to "nowhere")
 s   - legato slide
 S   - shift slide
 - natural harmonic
[n]  - artificial harmonic
n(n) - tapped harmonic
 ~   - vibrato
 tr  - trill
 T   - tap
 TP  - trem. picking
 PM  - palm muting
\n/  - tremolo bar dip; n = amount to dip
 \n  - tremolo bar down
 n/  - tremolo bar up
/n\  - tremolo bar inverted dip
 =   - hold bend; also acts as connecting device for hammers/pulls
 <> - volume swell (louder/softer)
 x   - on rhythm slash represents muted slash
 o   - on rhythm slash represents single note slash

Misc Legend
-----------
 |  - bar
||  - double bar
||o - repeat start
o|| - repeat end
*|  - double bar (ending)
 :  - bar (freetime)
 $  - Segno
 &  - Coda
Tempo markers -  = BPM(8/16=s8/s16), where s8 = swing 8ths, s16 = swing 16ths
									


911Tabs.com - tabs search engine
More "And All Things Will End" tabs @ 911Tabs

A Guide to Tab NotationGuitar TabsGuitar ResourcesGuitar TabsPrivacy PolicyGuitar TabsContact

Online Guitar Lessons

Avenged Sevenfold Guitar Tabs - Over 200,000 chords, guitar and bass tabs with video. Find tabs, video guitar lessons and more.