Music Guitar Tab, Tabs with MP3, ringtones, ringtone, concert tickets, guitar lessons, guitar tabs easy, guitar hero

Guitar Tabs Guitar Chords Bass Tabs
 Web Guitar Tabs
Guitar Lessons
 
Lyrics abcdefghijklmnopqrstuvwxyz # Top 100 Lyrics

Guitar Tabs
Guitar Tab






click on, click off


Tab for "Almost Easy" - Avenged Sevenfold Rating 4Print Guitar Tabs
select alternative YouTube videos below...
Tweak the search term to refine the YouTube video results:         
Share on Facebook

Learn to play this song and others via online guitar lessons @ JamPlay.com!

Almost Easy
Avenged Sevenfold

Transcribed by Seth "Shadows" Sanders {F.u.c.kallyourfalsebeauty@hotmail.com}

 

Gtr I (D A D G B E) - 'Rhythm Guitar I'
Gtr II (D A D G B E) - 'Rhythm Guitar II'
Gtr III (D A D G B E) - 'Lead Guitar I'
Gtr IV (D A D G B E) - 'Piano'
Gtr V (D A D G B E) - 'Lead Guitar II'

 Intro
  Q=174
 4/4
  Gtrs I, II
  E E E E E E E E   E E E E     E  E E  E     E  E  E  E E  E  E E
|-----------------|-----------------------|------------------------|
|-----------------|-----------------------|------------------------|
|-6-6-6-6-6-6-6-6-|-6-6-6-6-----4--4-4--4-|---4--4--4--4-4--4--4-4-|
|-6-6-6-6-6-6-6-6-|-6-6-6-6-----4--4-4--4-|---4--4--4--4-4--4--4-4-|
|-4-4-4-4-4-4-4-4-|-4-4-4-4-----2--2-2--2-|---2--2--2--2-2--2--2-2-|
|-----------------|-----------------------|------------------------|
|
| Gtr III
| W                 H        a  Q.      E    +Q     Q.      Q.
|-----------------|---------10s12------11-|-(11)-------------------|
|-----------------|-----------------------|--------12--------------|
|-----------------|-----------------------|----------------13------|
|-----------------|-----------------------|------------------------|
|-----------------|-----------------------|------------------------|
|-----------------|-----------------------|------------------------|
|
| Gtr IV
| E Q   Q   E Q     Q   Q       E  Q    E    +E  E  Q    Q     Q
|---5---4-----9---|-5---4----------5----4-|--(4)----9----5-----4---|
|-----------------|-----------------------|------------------------|
|-----------------|-----------------------|------------------------|
|-----------------|-----------------------|------------------------|
|-4---------4-----|-------------4---------|------4-----------------|
|-----------------|-----------------------|------------------------|


   E E   E     E   E     E   E  E
|---------------------------------|
|---------------------------------|
|---------------------------------|
|--4-4---4-----4---4-----4---4--4-|
|--4-4---4-----4---4-----4---4--4-|
|--4-4---4-----4---4-----4---4--4-|
|
|        \0.5/     \0.5/
|  ~~                        ~~~~~~
|  Q    +Q        +Q        +Q
|---------------------------------|
|-14---(14)------(14)------(14)---|
|---------------------------------|
|---------------------------------|
|---------------------------------|
|---------------------------------|
|
|  E Q         Q         E   Q
|----5---------4-------------9----|
|---------------------------------|
|---------------------------------|
|---------------------------------|
|--4---------------------4--------|
|---------------------------------|


    E  E E   E       E  E E  E     E  E  E  E E  E  E E
|------------------------------|-------------------------|
|------------------------------|-------------------------|
|------------------------------|---------4--4-4--4--4-4--|
|---4--4-4---4-------7--7-7--7-|---7--7--4--4-4--4--4-4--|
|---4--4-4---4-------7--7-7--7-|---7--7--2--2-2--2--2-2--|
|---4--4-4---4-------7--7-7--7-|---7--7------------------|
|
|~~~~~~
|  +Q.      +E    a  Q.      E    +Q     Q.      Q.
|----------------10s12------11-|-(11)--------------------|
|-(14)-----(14)\---------------|--------12---------------|
|------------------------------|----------------13-------|
|------------------------------|-------------------------|
|------------------------------|-------------------------|
|------------------------------|-------------------------|
|
|   Q    Q           E  Q    E    +E  E  Q    Q     Q
|---5----4--------------5----4-|--(4)----9----5-----4----|
|------------------------------|-------------------------|
|------------------------------|-------------------------|
|------------------------------|-------------------------|
|--------------------4---------|------4------------------|
|------------------------------|-------------------------|


   E  E E E E E E E     E  E E E     E  E E  E     E  E  E  E E  E  E E
|-------------------|--------------------------|-------------------------|
|-------------------|--------------------------|-------------------------|
|--6--6-6-6-6-6-6-6-|---6--6-6-6-----4--4-4--4-|---4--4--4--4-4--4--4-4--|
|--6--6-6-6-6-6-6-6-|---6--6-6-6-----4--4-4--4-|---4--4--4--4-4--4--4-4--|
|--4--4-4-4-4-4-4-4-|---4--4-4-4-----2--2-2--2-|---2--2--2--2-2--2--2-2--|
|-------------------|--------------------------|-------------------------|
|
|  \1
|  W                   +Q.     E  a  Q.      E    +Q     Q.      Q.
|-17----------------|-(17)-----x-10s12------11-|-(11)--------------------|
|-------------------|--------------------------|--------12---------------|
|-------------------|--------------------------|----------------13-------|
|-------------------|--------------------------|-------------------------|
|-------------------|--------------------------|-------------------------|
|-------------------|--------------------------|-------------------------|
|
|  E  Q   Q   E Q       Q    Q       E  Q    E    +E  E  Q    Q     Q
|-----5---4-----9---|---5----4----------5----4-|--(4)----9----5-----4----|
|-------------------|--------------------------|-------------------------|
|-------------------|--------------------------|-------------------------|
|-------------------|--------------------------|-------------------------|
|--4----------4-----|----------------4---------|------4------------------|
|-------------------|--------------------------|-------------------------|


   E E   E     E E   E  E E     E  E E E     E   E E  E
|---------------------------|---------------------------|
|---------------------------|---------------------------|
|---------------------------|---------------------------|
|--4-4---4-----4-4---4--4-4-|---4--4-4-4-----7---7-7--7-|
|--4-4---4-----4-4---4--4-4-|---4--4-4-4-----7---7-7--7-|
|--4-4---4-----4-4---4--4-4-|---4--4-4-4-----7---7-7--7-|
|
|  Q    +Q.         +Q.        +H         a  Q.       E
|---------------------------|------------10s12-------11-|
|-14---(14)b16-----(14)-----|-(14)----------------------|
|---------------------------|---------------------------|
|---------------------------|---------------------------|
|---------------------------|---------------------------|
|---------------------------|---------------------------|
|
|  E Q         Q     E  Q       Q    Q       E   Q    E
|----5---------4--------9---|---5----4----------12---11-|
|---------------------------|---------------------------|
|---------------------------|---------------------------|
|---------------------------|---------------------------|
|--4-----------------4------|----------------4----------|
|---------------------------|---------------------------|


    E  E     E  E E  E  E E
|---------------------------||
|---------------------------||
|------------4--4-4--4--4-4-||
|---7--7-----4--4-4--4--4-4-||
|---7--7-----2--2-2--2--2-2-||
|---7--7--------------------||
|
|  +Q     a  Q.      Q.
|-(11)---14s17------16\-----||
|---------------------------||
|---------------------------||
|---------------------------||
|---------------------------||
|---------------------------||
|
|  +E  E     Q    Q     Q
|-(11)-------9----5-----4---||
|---------------------------||
|---------------------------||
|---------------------------||
|------4--------------------||
|---------------------------||


 Pre Verse
  Gtrs I, II
        PM------|       PM|     PM|
    Q   E E E E E E   E E E E E E E E
|-------------------|-----------------|
|-------------------|-----------------|
|---7\------------7-|-6-----6-3-----6-|
|---x-------------x-|-x-----x-x-----x-|
|---5\------------5-|-4-----4-1-----4-|
|-------0-0-0-0-0---|---0-0-----0-0---|
|
| Gtr III
|   ~~~~
|   H.          Q     W
|-/16---------------|-----------------|
|-------------------|-----------------|
|-------------------|-----------------|
|-------------------|-----------------|
|-------------------|-----------------|
|-------------------|-----------------|


      PM------------------|         PM----|
  Q   E E E E E E   S S S S E   E   S S S S E   E
|-----------------|---------------------------------|
|-----------------|---------------------------------|
|-7\--------------|---------------------------------|
|-x---------------|---------------------------------|
|-5\--------------|---------------------------------|
|-----0-0-0-0-0-0-|-0-0-0-0-6b7r6b7-0-0-0-0-6b8r6b8-|
|
| W                 W
|-----------------|---------------------------------|
|-----------------|---------------------------------|
|-----------------|---------------------------------|
|-----------------|---------------------------------|
|-----------------|---------------------------------|
|-----------------|---------------------------------|


  Gtrs I, II
      PM------|       PM|     PM|
  Q   E E E E E E   E E E E E E E E
|-----------------|-----------------|
|-----------------|-----------------|
|-7\------------7-|-6-----6-3-----6-|
|-x-------------x-|-x-----x-x-----x-|
|-5\------------5-|-4-----4-1-----4-|
|-----0-0-0-0-0---|---0-0-----0-0---|


      PM--------------------------|     ~
  Q   E E E E E E   S S S S S S S S E E Q
|-----------------|------------------------||
|-----------------|------------------------||
|-7\--------------|------------------------||
|-x---------------|------------------------||
|-5\--------------|------------------------||
|-----0-0-0-0-0-0-|-0-0-0-0-0-0-0-0-6h7p6--||


   Verse I
    Gtrs I, II
       PM--------|      PM--------|
    Q  E E E E E E   Q  E E E E E E
||-----------------|----------------|
||o----------------|----------------|
||-----------------|----------------|
||--0--------------|-0--------------|
||o-0--0-0-0-0-0-0-|-0--0-0-0-0-0-0-|
||--0--0-0-0-0-0-0-|-0--0-0-0-0-0-0-|


     PM--------------------------|     ~
  Q  E E E E E E   S S S S S S S S E E Q
|----------------|--------------------------||
|----------------|-------------------------o||
|----------------|--------------------------||
|-0--------------|--------------------------||
|-0--0-0-0-0-0-0-|-------------------------o||
|-0--0-0-0-0-0-0-|-0-0-0-0-0-0-0-0-6h7p6----||


       PM------------|      PM------------|
    Q  S S E S S E E E   Q  S S E S S E E E
||---------------------|--------------------|
||o--------------------|--------------------|
||---------------------|--------------------|
||--0------------------|-0------------------|
||o-0--0-0-0-0-0-0-0-0-|-0--0-0-0-0-0-0-0-0-|
||--0--0-0-0-0-0-0-0-0-|-0--0-0-0-0-0-0-0-0-|


     PM------------------------------|     ~
  Q  S S E S S E E E   S S S S S S S S E E Q
|--------------------|--------------------------||
|--------------------|-------------------------o||
|--------------------|--------------------------||
|-0------------------|--------------------------||
|-0--0-0-0-0-0-0-0-0-|-------------------------o||
|-0--0-0-0-0-0-0-0-0-|-0-0-0-0-0-0-0-0-6h7p6----||


     PM--------|      PM--------|      PM--------------------------|
  Q  E E E E E E   Q  E E E E E E   Q  E E E E E E   S S S S S S S S E E Q
|----------------|----------------|----------------|------------------------||
|----------------|----------------|----------------|------------------------||
|----------------|----------------|----------------|------------------------||
|-0--------------|-0--------------|-0--------------|------------------------||
|-0--0-0-0-0-0-0-|-0--0-0-0-0-0-0-|-0--0-0-0-0-0-0-|------------------------||
|-0--0-0-0-0-0-0-|-0--0-0-0-0-0-0-|-0--0-0-0-0-0-0-|-0-0-0-0-0-0-0-0-6h7p6--||


   Pre Chorus
       PM  PM|           PM|     PM|          PM|
    Q  E E E E E E   E E E E E E E E   Q  E E E E E E   E E E E E E E E
||-----------------|-----------------|----------------|-------------------||
||o----------------|-----------------|----------------|------------------o||
||-----------------|-----------------|----------------|-------------------||
||-------6-----1-1-|-1-1-----9-9-----|-9--9-9-----2-2-|-2-2-2-2-1-1-1-1---||
||o-0----4-----2-2-|-2-2-----7-7-----|-7--7-7-----4-4-|-4-4-4-4-3-3-3-3--o||
||--0--0---4-2-----|-----0-0-----7-7-|--------0-0-----|-------------------||


 Chorus
  Q  E E Q  E E   Q  E E Q  E E   Q  E E Q  E E   Q  E E Q  E E
|---------------|---------------|---------------|---------------|
|---------------|---------------|---------------|---------------|
|---------------|---------------|---------------|---------------|
|-2--2-2-2--2-2-|-2--2-2-2--2-2-|-2--2-2-2--2-2-|-2--2-2-2--2-2-|
|-2--2-2-2--2-2-|-2--2-2-2--2-2-|-2--2-2-2--2-2-|-2--2-2-2--2-2-|
|-2--2-2-2--2-2-|-2--2-2-2--2-2-|-2--2-2-2--2-2-|-2--2-2-2--2-2-|


  Q  E E Q  E E   Q  E E Q  E E   Q  E E Q  E E   Q  E E Q  E E
|---------------|---------------|---------------|---------------|
|---------------|---------------|---------------|---------------|
|---------------|---------------|---------------|---------------|
|-0--0-0-0--0-0-|-0--0-0-0--0-0-|-0--0-0-0--0-0-|-0--0-0-0--0-0-|
|-0--0-0-0--0-0-|-0--0-0-0--0-0-|-0--0-0-0--0-0-|-0--0-0-0--0-0-|
|-0--0-0-0--0-0-|-0--0-0-0--0-0-|-0--0-0-0--0-0-|-0--0-0-0--0-0-|


  PM------------|     ~
  S S S S S S S S E E Q
|------------------------||
|------------------------||
|------------------------||
|------------------------||
|------------------------||
|-0-0-0-0-0-0-0-0-6h7p6--||


   Verse II
    Gtrs I, II
       PM--------|      PM--------|
    Q  E E E E E E   Q  E E E E E E
||-----------------|----------------|
||o----------------|----------------|
||-----------------|----------------|
||--0--------------|-0--------------|
||o-0--0-0-0-0-0-0-|-0--0-0-0-0-0-0-|
||--0--0-0-0-0-0-0-|-0--0-0-0-0-0-0-|


     PM--------------------------|     ~
  Q  E E E E E E   S S S S S S S S E E Q
|----------------|--------------------------||
|----------------|-------------------------o||
|----------------|--------------------------||
|-0--------------|--------------------------||
|-0--0-0-0-0-0-0-|-------------------------o||
|-0--0-0-0-0-0-0-|-0-0-0-0-0-0-0-0-6h7p6----||


       PM------------|      PM------------|
    Q  S S E S S E E E   Q  S S E S S E E E
||---------------------|--------------------|
||o--------------------|--------------------|
||---------------------|--------------------|
||--0------------------|-0------------------|
||o-0--0-0-0-0-0-0-0-0-|-0--0-0-0-0-0-0-0-0-|
||--0--0-0-0-0-0-0-0-0-|-0--0-0-0-0-0-0-0-0-|


     PM------------------------------|     ~
  Q  S S E S S E E E   S S S S S S S S E E Q
|--------------------|--------------------------||
|--------------------|-------------------------o||
|--------------------|--------------------------||
|-0------------------|--------------------------||
|-0--0-0-0-0-0-0-0-0-|-------------------------o||
|-0--0-0-0-0-0-0-0-0-|-0-0-0-0-0-0-0-0-6h7p6----||


     PM--------|      PM--------|      PM--------------------------|   ~~
  Q  E E E E E E   Q  E E E E E E   Q  E E E E E E   S S S S S S S S E E E
|----------------|----------------|----------------|------------------------||
|----------------|----------------|----------------|------------------------||
|----------------|----------------|----------------|------------------------||
|-0--------------|-0--------------|-0--------------|------------------------||
|-0--0-0-0-0-0-0-|-0--0-0-0-0-0-0-|-0--0-0-0-0-0-0-|------------------------||
|-0--0-0-0-0-0-0-|-0--0-0-0-0-0-0-|-0--0-0-0-0-0-0-|-0-0-0-0-0-0-0-0-6h7p6--||


   Pre Chorus
       PM  PM|           PM|     PM|          PM|
    Q  E E E E E E   E E E E E E E E   Q  E E E E E E   E E E E E E E E
||-----------------|-----------------|----------------|-------------------||
||o----------------|-----------------|----------------|------------------o||
||-----------------|-----------------|----------------|-------------------||
||-------6-----1-1-|-1-1-----9-9-----|-9--9-9-----2-2-|-2-2-2-2-1-1-1-1---||
||o-0----4-----2-2-|-2-2-----7-7-----|-7--7-7-----4-4-|-4-4-4-4-3-3-3-3--o||
||--0--0---4-2-----|-----0-0-----7-7-|--------0-0-----|-------------------||


 Chorus
  Q  E E Q  E E   Q  E E Q  E E   Q  E E Q  E E   Q  E E Q  E E
|---------------|---------------|---------------|---------------|
|---------------|---------------|---------------|---------------|
|---------------|---------------|---------------|---------------|
|-2--2-2-2--2-2-|-2--2-2-2--2-2-|-2--2-2-2--2-2-|-2--2-2-2--2-2-|
|-2--2-2-2--2-2-|-2--2-2-2--2-2-|-2--2-2-2--2-2-|-2--2-2-2--2-2-|
|-2--2-2-2--2-2-|-2--2-2-2--2-2-|-2--2-2-2--2-2-|-2--2-2-2--2-2-|


  Q  E E Q  E E   Q  E E Q  E E   Q  E E Q  E E   Q  E E Q  E E
|---------------|---------------|---------------|---------------|
|---------------|---------------|---------------|---------------|
|---------------|---------------|---------------|---------------|
|-0--0-0-0--0-0-|-0--0-0-0--0-0-|-0--0-0-0--0-0-|-0--0-0-0--0-0-|
|-0--0-0-0--0-0-|-0--0-0-0--0-0-|-0--0-0-0--0-0-|-0--0-0-0--0-0-|
|-0--0-0-0--0-0-|-0--0-0-0--0-0-|-0--0-0-0--0-0-|-0--0-0-0--0-0-|


  Q  E E E E E E   Q  E E E E E E   Q  E E E E E E   Q  E E E E E E
|----------------|----------------|----------------|----------------|
|----------------|----------------|----------------|----------------|
|----------------|----------------|----------------|----------------|
|-2--2-2-2-2-2-2-|-2--2-2-2-2-2-2-|-2--2-2-2-2-2-2-|-2--2-2-2-2-2-2-|
|-2--2-2-2-2-2-2-|-2--2-2-2-2-2-2-|-2--2-2-2-2-2-2-|-2--2-2-2-2-2-2-|
|-2--2-2-2-2-2-2-|-2--2-2-2-2-2-2-|-2--2-2-2-2-2-2-|-2--2-2-2-2-2-2-|


  Q  E E E E E E   Q  E E E E E E   Q  E E E E E E   Q  E E E E E E
|----------------|----------------|----------------|----------------|
|----------------|----------------|----------------|----------------|
|----------------|----------------|----------------|----------------|
|-0--0-0-0-0-0-0-|-0--0-0-0-0-0-0-|-0--0-0-0-0-0-0-|-0--0-0-0-0-0-0-|
|-0--0-0-0-0-0-0-|-0--0-0-0-0-0-0-|-0--0-0-0-0-0-0-|-0--0-0-0-0-0-0-|
|-0--0-0-0-0-0-0-|-0--0-0-0-0-0-0-|-0--0-0-0-0-0-0-|-0--0-0-0-0-0-0-|


  PM------------|     ~
  S S S S S S S S E E Q
|------------------------||
|------------------------||
|------------------------||
|------------------------||
|------------------------||
|-0-0-0-0-0-0-0-0-6h7p6--||


 Pre Solo
      PM------|       PM|     PM|
  Q   E E E E E E   E E E E E E E E
|-----------------|-----------------|
|-----------------|-----------------|
|-7\------------7-|-6-----6-3-----6-|
|-x-------------x-|-x-----x-x-----x-|
|-5\------------5-|-4-----4-1-----4-|
|-----0-0-0-0-0---|---0-0-----0-0---|
|
| Gtr V
| W                 W
|-----------------|-----------------|
|-----------------|-----------------|
|-----------------|-----------------|
|-----------------|-----------------|
|-----------------|-----------------|
|-----------------|-----------------|


      PM------------------|         PM----|
  Q   E E E E E E   S S S S E   E   S S S S E   E
|-----------------|---------------------------------|
|-----------------|---------------------------------|
|-7\--------------|---------------------------------|
|-x---------------|---------------------------------|
|-5\--------------|---------------------------------|
|-----0-0-0-0-0-0-|-0-0-0-0-6b7r6b7-0-0-0-0-6b8r6b8-|
|
| W                 W
|-----------------|---------------------------------|
|-----------------|---------------------------------|
|-----------------|---------------------------------|
|-----------------|---------------------------------|
|-----------------|---------------------------------|
|-----------------|---------------------------------|


  Gtrs I, II
      PM------|       PM|     PM|
  Q   E E E E E E   E E E E E E E E
|-----------------|-----------------|
|-----------------|-----------------|
|-7\------------7-|-6-----6-3-----6-|
|-x-------------x-|-x-----x-x-----x-|
|-5\------------5-|-4-----4-1-----4-|
|-----0-0-0-0-0---|---0-0-----0-0---|
|
| W                 W
|-----------------|-----------------|
|-----------------|-----------------|
|-----------------|-----------------|
|-----------------|-----------------|
|-----------------|-----------------|
|-----------------|-----------------|


      PM--------------------------|             ~
  Q   E E E E E E   S S S S S S S S       E   E Q
|-----------------|---------------------------------||
|-----------------|---------------------------------||
|-7\--------------|---------------------------------||
|-x---------------|---------------------------------||
|-5\--------------|---------------------------------||
|-----0-0-0-0-0-0-|-0-0-0-0-0-0-0-0-------6h==7p6---||
|
| W                 H                a    H
|-----------------|---------------------------------||
|-----------------|---------------------------------||
|-----------------|---------------------------------||
|-----------------|-----------------(6)s(14)\-------||
|-----------------|---------------------------------||
|-----------------|---------------------------------||


 Guitar Solo I
        PM|                                       PM|
   E    E E   E  S S S S S S    S    S       E    E E E   S  S S S S S S S
|-----------------------------------------|--------------------------------|
|-----------------------------------------|--------------------------------|
|-----------------------------------------|--------------------------------|
|--0----------0---------------------------|--0--------0--------------------|
|--0----------0---------------------------|--0--------0--------------------|
|--0----0-0---0--0-0-0-0-6-7----6----4----|--0----0-0-0---0--0-0-0-7-6-4-6-|
|
|             ~~~~                                        ~~~~
|                               |---3---|
|  Q.        +H              a  S  S    S    H           +H
|-----------------------------------------|--------------------------------|
|-11b13-----(11)---------------14p11------|--------------------------------|
|----------------------------x---------11-|--------------------------------|
|-----------------------------------------|-14b16-------(14)---------------|
|-----------------------------------------|--------------------------------|
|-----------------------------------------|--------------------------------|


   E     Q           E      Q   Q          Q           Q        Q         Q
|--------------------------------------|-------------------------------------------------|
|--------------------------------------|-------------------------------------------------|
|--------------------------------------|-------------------------------------------------|
|--------------------------------------|-------------------------------------------------|
|--2-----4-----------6------6---6------|---2-----------4--------7---------7--------------|
|--2-----4-----------6------6---6------|---2-----------4--------7---------7--------------|
|
|                                   ~~~~                                      ~~~~
|  S  S  S  S  S  S  E     +Q.     +E      S  S  S  S  S  Q.       +E        +E   +S
|----------------13-16b17-(16)----(16)-|-/16---------------------------------------------|
|-------------13-----------------------|-----17------------------------------------------|
|----------13--------------------------|--------18---------------------------------------|
|----11-14-----------------------------|-----------18----18pb19r==(18)b20r==(18)-(18)\---|
|-11-----------------------------------|--------------19---------------------------------|
|--------------------------------------|-------------------------------------------------|


         PM---|
   E     E     E     E    S S S S S S   S     S
|-----------------------------------------------|
|-----------------------------------------------|
|-----------------------------------------------|
|--0-----------------0--------------------------|
|--0-----------------0--------------------------|
|--0-----0-----0-----0----0-0-0-0-6-7---6-----4-|
|
|  S  S  S  S  S  S  H                 +E
|-16h17p16--------------------------------------|
|----------17-------19b21r============(19)b21---|
|-------------18--------------------------------|
|----------------18-----------------------------|
|-----------------------------------------------|
|-----------------------------------------------|


         PM---|
   E     E     E     E    S S S S   S     S S   S     E     Q           E    Q      Q
|--------------------------------------------------|-----------------------------------------||
|--------------------------------------------------|-----------------------------------------||
|--------------------------------------------------|-----------------------------------------||
|--0-----------------0-----------------------------|-----------------------------------------||
|--0-----------------0-----------------------------|--2-----4-----------6----6------6--------||
|--0-----0-----0-----0----0-0-0-0---7-----6-4---6--|--2-----4-----------6----6------6--------||
|
|  S  S  S  S  S  S  Q.            +Q           a     S  S  S  S  S  S  Q       +Q     +E
|--------------------------------------------------|-16--------------------------------------||
|-16h17p16-----------------------------------------|----17-----------------------------------||
|----------16-------18b20r========(18)b20r====(18)-|-------18--------------------------------||
|-------------18-----------------------------------|----------18-----------------------------||
|----------------19--------------------------------|-------------19-16-18b20---(18)---(18)\--||
|--------------------------------------------------|-----------------------------------------||


 Guitar Solo II
  Gtrs I, II
   Q           Q          Q  Q         E   E E E E E  E   E
|-----------------------------------|-------------------------|
|-----------------------------------|-------------------------|
|-----------------------------------|--6---6-6-6-6-6--6---6---|
|-----------------------------------|--6---6-6-6-6-6--6---6---|
|--2-----------4----------7--7------|--4---4-4-4-4-4--4---4---|
|--2-----------4----------7--7------|-------------------------|
|
|                                      ~~~~
|  S  S  S  S  S  S  H          +E     H..               +E
|-------------------16b17------(16)-|-16----------------(16)\-|
|-------------14-16-----------------|-------------------------|
|----------13-----------------------|-------------------------|
|----11-14--------------------------|-------------------------|
|-11--------------------------------|-------------------------|
|-----------------------------------|-------------------------|
|
| Gtr III
|  W                                   H.             Q
|-----------------------------------|-------------------------|
|-----------------------------------|-------------------------|
|-----------------------------------|-------------------------|
|-----------------------------------|-11----------------------|
|-----------------------------------|----------------11-------|
|-----------------------------------|-------------------------|


   E    E E E     E E E E     E  E E E  E E  E E
|-------------------------|----------------------|
|-------------------------|----------------------|
|--6----6-6-6-----4-4-4-4-|---4--4-4-4--4-4--4-4-|
|--6----6-6-6-----4-4-4-4-|---4--4-4-4--4-4--4-4-|
|--4----4-4-4-----2-2-2-2-|---2--2-2-2--2-2--2-2-|
|-------------------------|----------------------|
|
|  W                          W
|-------------------------|----------------------|
|-------------------------|----------------------|
|-------------------------|----------------------|
|-------------------------|----------------------|
|-------------------------|----------------------|
|-------------------------|----------------------|
|
|                 ~~~~~~~~~~~~~~~
|  H           a  H          +Q    Q    Q    Q
|-------------------------|----------------------|
|-------------------------|----------------------|
|-------------11s13-------|-(13)------------13---|
|-11b13r=======x----------|------------11--------|
|-------------------------|--------9-------------|
|-------------------------|----------------------|


   E    E E E E E  E E    E    E E E  E E E E     E  E  E E  E    E E E
|----------------------|----------------------|-------------------------|
|----------------------|----------------------|-------------------------|
|----------------------|----------------------|---------4-4--4----4-4-4-|
|--4----4-4-4-4-4--4-4-|--4----4-4-4--7-7-7-7-|---7--7--4-4--4----4-4-4-|
|--4----4-4-4-4-4--4-4-|--4----4-4-4--7-7-7-7-|---7--7--2-2--2----2-2-2-|
|--4----4-4-4-4-4--4-4-|--4----4-4-4--7-7-7-7-|---7--7------------------|
|
| Gtr III
|                                     ~~~~~~~~~~~~~~~
|  H.              Q      H           H          +Q     Q    H
|-14b16----------------|----------------------|-------------------------|
|----------------------|----------------------|-------------------------|
|----------------------|-13b14r=======x-------|-------------13b14r======|
|-----------------11---|-------------11-------|-(11)--------------------|
|----------------------|----------------------|--------11---------------|
|----------------------|----------------------|-------------------------|
|
| Gtr IV
|  E    Q   Q   E  Q      Q      Q    E Q   E    +E  E  Q    Q      Q
|-------5---4------9---|--5------4------5---4-|--(4)----9----5------4---|
|----------------------|----------------------|-------------------------|
|----------------------|----------------------|-------------------------|
|----------------------|----------------------|-------------------------|
|--4------------4------|--------------4-------|------4------------------|
|----------------------|----------------------|-------------------------|


   E  E E E E E  E E    E    E E E     E E E E     E  E E E  E E  E E
|--------------------|-------------------------|-----------------------|
|--------------------|-------------------------|-----------------------|
|--6--6-6-6-6-6--6-6-|--6----6-6-6-----4-4-4-4-|---4--4-4-4--4-4--4-4--|
|--6--6-6-6-6-6--6-6-|--6----6-6-6-----4-4-4-4-|---4--4-4-4--4-4--4-4--|
|--4--4-4-4-4-4--4-4-|--4----4-4-4-----2-2-2-2-|---2--2-2-2--2-2--2-2--|
|--------------------|-------------------------|-----------------------|
|
|  ~~~
|  H.            Q      H           a  H          +Q    Q    Q    Q
|--------------------|-------------------------|-----------------------|
|--------------------|-------------------------|-----------------------|
|--x-----------------|-------------11s16-------|-(16)------------13----|
|-11-----------------|-11b13r=======x----------|------------11---------|
|---------------11---|-------------------------|--------9--------------|
|--------------------|-------------------------|-----------------------|
|
|  E  Q   Q   E  Q      Q      Q       E Q   E    +E  E Q    Q    Q
|-----5---4------9---|--5------4---------5---4-|--(4)---9----5----4----|
|--------------------|-------------------------|-----------------------|
|--------------------|-------------------------|-----------------------|
|--------------------|-------------------------|-----------------------|
|--4----------4------|-----------------4-------|------4----------------|
|--------------------|-------------------------|-----------------------|


    E  E E  E  E E  E E     E  E E E  E     E     E     E
|-----------------------|------------------------------------|
|-----------------------|------------------------------------|
|-----------------------|------------------------------------|
|---4--4-4--4--4-4--4-4-|---4--4-4-4--7-----7-----7-----7----|
|---4--4-4--4--4-4--4-4-|---4--4-4-4--7-----7-----7-----7----|
|---4--4-4--4--4-4--4-4-|---4--4-4-4--7-----7-----7-----7----|
|
|                   ~~~~~~~~~~~
|   Q.      Q.      Q      +H         S  S  S  S  S  S  S  S
|-/17------16-----------|------------17p16p14----------------|
|------------------14---|-(14)----------------17p16p14-------|
|-----------------------|------------------------------16p14-|
|-----------------------|------------------------------------|
|-----------------------|------------------------------------|
|-----------------------|------------------------------------|
|
|   E  Q    Q    E  Q       Q    Q    E     Q           E
|------5----4-------9---|---5----4----------5-----------4----|
|-----------------------|------------------------------------|
|-----------------------|------------------------------------|
|-----------------------|------------------------------------|
|---4------------4------|-------------4----------------------|
|-----------------------|------------------------------------|


   E      E      E     E     E     E     E     E
|----------------------------------------------------||
|----------------------------------------------------||
|----------------4-----4-----4-----4-----4-----4-----||
|--7------7------4-----4-----4-----4-----4-----4-----||
|--7------7------2-----2-----2-----2-----2-----2-----||
|--7------7------------------------------------------||
|
|  S   S  S  S   S  S  S  S  S  S  S  S  S  S  S  S
|--------------/19p17p16-----------------------------||
|------------------------19p17p16--------------------||
|---------------------------------18p16--------------||
|-16p=14----14--------------------------18p16--------||
|--------16-----------------------------------19p18--||
|----------------------------------------------------||
|
| +E      E      Q           Q           Q
|-(4)------------9-----------5-----------4-----------||
|----------------------------------------------------||
|----------------------------------------------------||
|----------------------------------------------------||
|---------4------------------------------------------||
|----------------------------------------------------||


 Interlude
   Q  E E   E   E Q    E E E E Q  E E   E E Q  E E E E   Q  E E E E Q
|--------------------|----------------|----------------|---------------|
|--------------------|----------------|----------------|---------------|
|--------------------|----------------|----------------|-4--4-4-4-4-4--|
|--0--0-0---0---0-0--|-0-0-0-0-2--2-2-|-2-2-2--2-2-2-2-|-4--4-4-4-4-4--|
|--0--0-0---0---0-0--|-0-0-0-0-2--2-2-|-2-2-2--2-2-2-2-|-2--2-2-2-2-2--|
|--0--0-0---0---0-0--|-0-0-0-0-2--2-2-|-2-2-2--2-2-2-2-|---------------|
|
|  H       +Q     Q    W                W                W
|--------------------|----------------|----------------|---------------|
|--------------------|----------------|----------------|---------------|
|--------------------|----------------|----------------|---------------|
|--------------------|----------------|----------------|---------------|
|-16------(16)\------|----------------|----------------|---------------|
|--------------------|----------------|----------------|---------------|


  E E E E Q  E E   E E Q  E E E E
|----------------|----------------|
|----------------|----------------|
|-4-4-4-4--------|----------------|
|-4-4-4-4-6--6-6-|-6-6-6--6-6-6-6-|
|-2-2-2-2-6--6-6-|-6-6-6--6-6-6-6-|
|---------6--6-6-|-6-6-6--6-6-6-6-|


  Q  E E E E Q    E E E E Q  E E   E E Q  E E E E   Q  E E E E Q
|---------------|----------------|----------------|---------------|
|---------------|----------------|----------------|---------------|
|---------------|----------------|--------9-9-9-9-|-9--9-9-9-9----|
|-6--6-6-6-6-7--|-7-7-7-7-7--7-7-|-7-7-9--9-9-9-9-|-9--9-9-9-9-9--|
|-6--6-6-6-6-7--|-7-7-7-7-7--7-7-|-7-7-9--7-7-7-7-|-7--7-7-7-7-9--|
|-6--6-6-6-6-7--|-7-7-7-7-7--7-7-|-7-7-9----------|------------9--|


  E E E E Q  E E   E E Q  E E E E   Q  E E E E Q    E E E E Q  E E
|----------------|----------------|---------------|----------------|
|----------------|----------------|---------------|----------------|
|----------------|----------------|---------------|----------------|
|-9-9-9-9-9--9-9-|-9-9-6--6-6-6-6-|-6--6-6-6-6-6--|-6-6-6-6-6--6-6-|
|-9-9-9-9-9--9-9-|-9-9-6--6-6-6-6-|-6--6-6-6-6-6--|-6-6-6-6-6--6-6-|
|-9-9-9-9-9--9-9-|-9-9-6--6-6-6-6-|-6--6-6-6-6-6--|-6-6-6-6-6--6-6-|


  E E Q  E E E E   Q  E E E E Q    E E E E Q  E E   E E Q  E E Q
|----------------|---------------|----------------|---------------||
|----------------|---------------|----------------|---------------||
|----------------|---------------|----------------|---------------||
|-6-6-6--6-6-6-6-|-7--7-7-7-7-7--|-7-7-7-7-7--7-7-|-7-7-7--7-7-9--||
|-6-6-6--6-6-6-6-|-7--7-7-7-7-7--|-7-7-7-7-7--7-7-|-7-7-7--7-7-9--||
|-6-6-6--6-6-6-6-|-7--7-7-7-7-7--|-7-7-7-7-7--7-7-|-7-7-7--7-7-9--||


 Pre Chorus
  Gtr I
      PM   PM|           PM|     PM|          PM|
  Q   E  E E E E E   E E E E E E E E   Q  E E E E E E   E E E E E E E E
|------------------|-----------------|----------------|-----------------|
|------------------|-----------------|----------------|-----------------|
|------------------|-----------------|----------------|-----------------|
|--------6-----1-1-|-1-1-----9-9-----|-9--9-9-----2-2-|-2-2-2-2-1-1-1-1-|
|-0------4-----2-2-|-2-2-----7-7-----|-7--7-7-----4-4-|-4-4-4-4-3-3-3-3-|
|-0---0----4-2-----|-----0-0-----7-7-|--------0-0-----|-----------------|
|
| Gtr II
| PM----------------------------------------------------|
| E E H.             W                 W                W
|------------------|-----------------|----------------|-----------------|
|------------------|-----------------|----------------|-----------------|
|------------------|-----------------|----------------|-----------------|
|------------------|-----------------|----------------|-----------------|
|-0-0--------------|-----------------|----------------|-----------------|
|-0-0--------------|-----------------|----------------|-----------------|


          PM  PM|           PM|     PM|           PM|
  Q       E E E E E E   E E E E E E E E   Q   E E E E E E   E E E E E E E E
|---------------------|-----------------|-----------------|-----------------||
|---------------------|-----------------|-----------------|-----------------||
|---------------------|-----------------|-----------------|-----------------||
|-----------6-----1-1-|-1-1-----9-9-----|-9---9-9-----2-2-|-2-2-2-2-1-1-1-1-||
|-0---------4-----2-2-|-2-2-----7-7-----|-7---7-7-----4-4-|-4-4-4-4-3-3-3-3-||
|-0-------0---4-2-----|-----0-0-----7-7-|---------0-0-----|-----------------||
|
| PM------------------------------------------------|
| S S S S E E H         W                 E E E E E E E E   E E E E E E E E
|---------------------|-----------------|-----------------|-----------------||
|---------------------|-----------------|-----------------|-----------------||
|---------------------|-----------------|-----------------|-----------------||
|---------------------|-----------------|-------------2-2-|-2-2-2-2-1-1-1-1-||
|-0-0-0-0-0-0---------|-----------------|-0-0-0-0-0-0-4-4-|-4-4-4-4-3-3-3-3-||
|-0-0-0-0-0-0---------|-----------------|-0-0-0-0-0-0-2-2-|-2-2-2-2-1-1-1-1-||


 Chorus
  Gtrs I, II
  Q  E E Q  E E   Q  E E Q  E E   Q  E E Q  E E   Q  E E Q  E E
|---------------|---------------|---------------|---------------|
|---------------|---------------|---------------|---------------|
|---------------|---------------|---------------|---------------|
|-2--2-2-2--2-2-|-2--2-2-2--2-2-|-2--2-2-2--2-2-|-2--2-2-2--2-2-|
|-2--2-2-2--2-2-|-2--2-2-2--2-2-|-2--2-2-2--2-2-|-2--2-2-2--2-2-|
|-2--2-2-2--2-2-|-2--2-2-2--2-2-|-2--2-2-2--2-2-|-2--2-2-2--2-2-|


  Q  E E Q  E E   Q  E E Q  E E   Q  E E Q  E E   Q  E E Q  E E
|---------------|---------------|---------------|---------------|
|---------------|---------------|---------------|---------------|
|---------------|---------------|---------------|---------------|
|-0--0-0-0--0-0-|-0--0-0-0--0-0-|-0--0-0-0--0-0-|-0--0-0-0--0-0-|
|-0--0-0-0--0-0-|-0--0-0-0--0-0-|-0--0-0-0--0-0-|-0--0-0-0--0-0-|
|-0--0-0-0--0-0-|-0--0-0-0--0-0-|-0--0-0-0--0-0-|-0--0-0-0--0-0-|


  Q  E E E E E E   Q  E E E E E E   Q  E E E E E E   Q  E E E E E E
|----------------|----------------|----------------|----------------|
|----------------|----------------|----------------|----------------|
|----------------|----------------|----------------|----------------|
|-2--2-2-2-2-2-2-|-2--2-2-2-2-2-2-|-2--2-2-2-2-2-2-|-2--2-2-2-2-2-2-|
|-2--2-2-2-2-2-2-|-2--2-2-2-2-2-2-|-2--2-2-2-2-2-2-|-2--2-2-2-2-2-2-|
|-2--2-2-2-2-2-2-|-2--2-2-2-2-2-2-|-2--2-2-2-2-2-2-|-2--2-2-2-2-2-2-|


  Q  E E E E E E   Q  E E E E E E   Q  E E E E E E   Q  E E E E E E
|----------------|----------------|----------------|----------------|
|----------------|----------------|----------------|----------------|
|----------------|----------------|----------------|----------------|
|-0--0-0-0-0-0-0-|-0--0-0-0-0-0-0-|-0--0-0-0-0-0-0-|-0--0-0-0-0-0-0-|
|-0--0-0-0-0-0-0-|-0--0-0-0-0-0-0-|-0--0-0-0-0-0-0-|-0--0-0-0-0-0-0-|
|-0--0-0-0-0-0-0-|-0--0-0-0-0-0-0-|-0--0-0-0-0-0-0-|-0--0-0-0-0-0-0-|


  PM------------|     ~
  S S S S S S S S E E Q
|------------------------||
|------------------------||
|------------------------||
|------------------------||
|------------------------||
|-0-0-0-0-0-0-0-0-6h7p6--||


 Outro
  Gtrs I, II
      PM------|       PM|     PM|
  Q   E E E E E E   E E E E E E E E
|-----------------|-----------------|
|-----------------|-----------------|
|-7\------------7-|-6-----6-3-----6-|
|-x-------------x-|-x-----x-x-----x-|
|-5\------------5-|-4-----4-1-----4-|
|-----0-0-0-0-0---|---0-0-----0-0---|


      PM------------------|         PM----|
  Q   E E E E E E   S S S S E   E   S S S S E   E
|-----------------|---------------------------------|
|-----------------|---------------------------------|
|-7\--------------|---------------------------------|
|-x---------------|---------------------------------|
|-5\--------------|---------------------------------|
|-----0-0-0-0-0-0-|-0-0-0-0-6b7r6b7-0-0-0-0-6b8r6b8-|


      PM------|       PM|     PM|
  Q   E E E E E E   E E E E E E E E
|-----------------|-----------------|
|-----------------|-----------------|
|-7\------------7-|-6-----6-3-----6-|
|-x-------------x-|-x-----x-x-----x-|
|-5\------------5-|-4-----4-1-----4-|
|-----0-0-0-0-0---|---0-0-----0-0---|


                   5/4
      PM--------------------------|
  Q   E E E E E E   S S S S S S S S E E Q.    +E
|-----------------|----------------------------------*|
|-----------------|----------------------------------*|
|-7\--------------|----------------------------------*|
|-x---------------|----------------------------------*|
|-5\--------------|----------------------------------*|
|-----0-0-0-0-0-0-|-0-0-0-0-0-0-0-0-6h7p6b7---(6)\---*|






--------------------------------------------------------------------------------


Duration Legend
---------------
W - whole; H - half; Q - quarter; E - 8th; S - 16th; T - 32nd; X - 64th; a - acciaccatura
+ - note tied to previous; . - note dotted; .. - note double dotted
Uncapitalized letters represent notes that are staccato (1/2 duration)
Irregular groupings are notated above the duration line
Duration letters will always appear directly above the note/fret number it represents the
duration for.  Duration letters with no fret number below them represent rests.  Multi-
bar rests are notated in the form Wxn, where n is the number of bars to rest for.  Low
melody durations appear below the staff

Tablature Legend
----------------
 h   - hammer-on
 p   - pull-off
 b   - bend
 pb  - pre-bend
 r   - bend release (if no number after the r, then release immediately)
 /\  - slide into or out of (from/to "nowhere")
 s   - legato slide
 S   - shift slide
<n> - natural harmonic
[n]  - artificial harmonic
n(n) - tapped harmonic
 ~   - vibrato
 tr  - trill
 T   - tap
 TP  - trem. picking
 PM  - palm muting
\n/  - tremolo bar dip; n = amount to dip
 \n  - tremolo bar down
 n/  - tremolo bar up
/n\  - tremolo bar inverted dip
 =   - hold bend; also acts as connecting device for hammers/pulls
 <> - volume swell (louder/softer)
 x   - on rhythm slash represents muted slash
 o   - on rhythm slash represents single note slash

Misc Legend
-----------
 |  - bar
||  - double bar
||o - repeat start
o|| - repeat end
*|  - double bar (ending)
 :  - bar (freetime)
 $  - Segno
 &  - Coda
Tempo markers - <E/E./Q/Q./H/H.> = BPM(8/16=s8/s16), where s8 = swing 8ths, s16 = swing 16ths

									


911Tabs.com - tabs search engine
More "Almost Easy" tabs @ 911Tabs

A Guide to Tab NotationGuitar TabsGuitar ResourcesGuitar TabsPrivacy PolicyGuitar TabsContact

Online Guitar Lessons

Avenged Sevenfold Guitar Tabs - Over 200,000 chords, guitar and bass tabs with video. Find tabs, video guitar lessons and more.