Music Guitar Tab, Tabs with MP3, ringtones, ringtone, concert tickets, guitar lessons, guitar tabs easy, guitar hero

Guitar Tabs Guitar Chords Bass Tabs
 Web Guitar Tabs
Guitar Lessons
 
Lyrics abcdefghijklmnopqrstuvwxyz # Top 100 Lyrics

Guitar Tabs
Guitar Tab






click on, click off


Tab for "Almost Easy" - Avenged Sevenfold Rating 4Print Guitar Tabs
select alternative YouTube videos below...
Tweak the search term to refine the YouTube video results:         
Share on Facebook

Learn to play this song and others via online guitar lessons @ JamPlay.com!

Song: Almost Easy
Artist: Avenged Sevenfold
Album: Avenged Sevenfold
Tuning: Drop D


Ok, people. so it's in Drop D half step down. I have done that. Everything has been
down a notch. Thanks everyone for helping me on realizing this. I've added the piano part,
changed the rhythm guitar part during the solo, and added the lead guitar on the 
Enjoy (more than u already have).

Intro
Piano Part (Repeat a lot during Intro)
|-----------------------------------------------|
|-------------18--------------------------------|
|-14h15p14-14----17-14--------------------------|
|-----------------------------------------------|
|-----------------------------------------------|
|-----------------------------------------------|


Rhythm Guitar 2x
|-----------------------------------------------|
|-----------------------------------------------|
|-7-7-777777-55555555-----------3333-5555-------|
|-7-7-777777-55555555-333333333-3333-5555-------|
|-5-5-555555-33333333-333333333-1111-3333-------|
|---------------------333333333-----------------|

Lead Guitar
|-------------------------------------------------------16b17~---|
|-------------/18-17-------15b16d-(15)b16---18-17----------------|
|--------------------17-14------------------------17-14----------|
|----------------------------------------------------------------|
|----------------------------------------------------------------|
|----------------------------------------------------------------|

|----------------------------18-17-18\------------------------|
|-18-17--------15b17---18-17----------------------------------|
|-------17-14-------------------------------------------------|
|-------------------------------------------------------------|
|-------------------------------------------------------------|
|-------------------------------------------------------------|


Pre-Verse
|-----------------------------------------------------------------|
|-----------------------------------------------------------------|
|-7----------------7-6----6-3----3-7------------------------------|
|-x----------------x-x----x-x----x-x------------------------------|
|-5-00000000000000-5-4-00-4-1-00-1-5-00000--00-----00-------------|
|---00000000000000-----00-----00-----00000--00-7bv-00-7bv---------|
    PM|-----------     --     --     -----  --     --

Verse 1st, 2nd, and 4th time
|---------------------------------------------------|
|---------------------------------------------------|
|---------------------------------------------------|
|-0--------0--------0--------0----------------------|
|-0-000000-0-000000-0-000000-0-00-------------------|
|-0-000000-0-000000-0-000000-0-00-6h7p6h7-----------|
    PM|---   ------   ------   ---------------------|

3rd time
|--------------------------------------------------------|
|--------------------------------------------------------|
|--------------------------------------------------------|
|-0-------------0-------------0-------------0------------|
|-0-00-00-00-00-0-00-00-00-00-0-00-00-00-00-0-00---------|
|-0-00-00-00-00-0-00-00-00-00-0-00-00-00-00-0-00-6h7p6h7-|
    PM|-- -- --   -- -- -- --   -- -- -- --   --

Then

Pre-Chorus 2x
|-----------------------------------------------------|
|-----------------------------------------------------|
|-7-7---7-5-5---5-3-3---3-5-5---5-6-6-----------------|
|-7-7---7-5-5---5-3-3---3-5-5---5-6-6-----------------|
|-5-5---5-3-3---3-1-1---1-3-3---3-4-4-----------------|
|-----------------------------------------------------|

Chorus
|------------------------------------------|
|------------------------------------------|
|--10-10-10-10-----------------------------|
|--10-10-10-10--0-0-0-0--------------------|
|--8--8--8--8---0-0-0-0--------------------|
|---------------0-0-0-0---000000-5h6p5-----|
                          PM|---

Repeat Verse

Repeat Pre-Chorus 2x

Repeat Chorus 2x

Repeat Pre-Verse


Solo
Guitar I
|---------------------------------------16-17b--/22b-21------------------------16-15--------------------|
|---------------------------------16-19------------------22-21-----------------------16-15-20b21-20b21--|
|-18b19-18p17p16------------11-14-------------------------------19-16----16v----------------------------|
|----------------18bv--12-13------------------------------------------19--------------------------------|
|-------------------------------------------------------------------------------------------------------|
|-------------------------------------------------------------------------------------------------------|

|--------------------------------18-17-------------------------------18v---|
|--20-19-------------------------------19-18-------------------18-19-------|
|--------20-19-------20b21-20b21-------------19-16-------19-20-------------|
|--------------21-20-------------------------------17v\--------------------|
|--------------------------------------------------------------------------|
|--------------------------------------------------------------------------|

|------------------------------/17v---------------------------------------|
|-----------------------------------------11b12d11---------11h12p11-------|
|-------------------------------------------------------------------------|
|-12v----------/19v---------12---------------------13v--------------13v---|
|-----12s13s12--------12s13------------13---------------13----------------|
|-------------------------------------------------------------------------|

|-----------------------------18b19d18-------------/18-17-15----17-15-------20-18-17-------------------------------|
|--------------------------------------17--------------------18-------18-17----------19p18p16----------------------|
|-------------16b17v--------------------------------------------------------------------------18p17p15-------------|
|--------------------------13--------------------------------------------------------------------------19p18-------|
|---13s17s13b--------13s17-----------------------------------------------------------------------------------17v\--|
|------------------------------------------------------------------------------------------------------------------|

Guitar II (something like this)
|---------------------------------------------------------------------------------|
|---------------------------------------------------------------------------------|
|---------------------------------------------------------------------------------|
|-0-6-7---0-6-7--0-6-7--0-6-7---------------------------0-6-7--0-6-7--------------|
|-0-6-7---0-6-7--0-6-7--0-6-7--00-00-00-00-00-00-00-00--0-6-7--0-6-7--------------|
|-0-6-7---0-6-7--0-6-7--0-6-7--00-00-00-00-00-00-00-00--0-6-7--0-6-7--------------|
                               PM|-- -- -- -- -- -- --

2x
|-----------------------------------------------|
|-----------------------------------------------|
|-7-7-777777-55555555-----------3333-5555-------|
|-7-7-777777-55555555-333333333-3333-5555-------|
|-5-5-555555-33333333-333333333-1111-3333-------|
|---------------------333333333-----------------|


Post-Solo
Both Guitars
|----------------------------------------------------------|
|----------------------------------------------------------|
|-------------------------------------------5-5555-6-6666--|
|-0-0000-0-0000-4-4444-4-4444-5-5555-5-5555-5-5555-6-6666--|
|-0-0000-0-0000-4-4444-4-4444-5-5555-5-5555-3-3333-4-4444--|
|-0-0000-0-0000-4-4444-4-4444-5-5555-5-5555----------------|

|----------------------------------------------------------------------------------|
|----------------------------------------------------------------------------------|
|-7-7777-7-7777-10-10101010-10-10101010-5-5555-5-5555------------------------------|
|-7-7777-7-7777-10-10101010-10-10101010-5-5555-5-5555-7-7777-7-7777-7-7777-7-7777--|
|-5-5555-5-5555-8--8-8-8-8--8--8-8-8-8--3-3333-3-3333-7-7777-7-7777-7-7777-7-7777--|
|-----------------------------------------------------7-7777-7-7777-7-7777-7-7777--|

|-----------------------------------|
|-----------------------------------|
|-3-3333-4-4444-5-5555-6-6666-------|
|-3-3333-4-4444-5-5555-6-6666-------|
|-1-1111-2-2222-3-3333-4-4444-------|
|-----------------------------------|

Re-entry
Rhythm Guitar Only 2x
|-----------------------------------------------------|
|-----------------------------------------------------|
|-7-7---7-5-5---5-3-3---3-5-5---5-6-6-----------------|
|-7-7---7-5-5---5-3-3---3-5-5---5-6-6-----------------|
|-5-5---5-3-3---3-1-1---1-3-3---3-4-4-----------------|
|-----------------------------------------------------|

Lead Guitar
|------------------------------------------------------|
|------------------------------------------------------|
|-----------------------------------------5--5-6-------|
|-----------------------------------------x--x-x-------|
|-------0000-0-0-------------0000-0-0-0---3--3-4-------|
|-------0000-0-0-------------0000-0-0-0----------------|
        PM|- - -             ---- - - -


Repeat Chorus 2x

Repeat Pre-Verse

And Yer Done.

*Please Rate*
									


911Tabs.com - tabs search engine
More "Almost Easy" tabs @ 911Tabs

A Guide to Tab NotationGuitar TabsGuitar ResourcesGuitar TabsPrivacy PolicyGuitar TabsContact

Online Guitar Lessons

Avenged Sevenfold Guitar Tabs - Over 200,000 chords, guitar and bass tabs with video. Find tabs, video guitar lessons and more.