Music Guitar Tab, Tabs with MP3, ringtones, ringtone, concert tickets, guitar lessons, guitar tabs easy, guitar hero

Guitar Tabs Guitar Chords Bass Tabs
 Web Guitar Tabs
Guitar Lessons
 
Lyrics abcdefghijklmnopqrstuvwxyz # Top 100 Lyrics

Guitar Tabs
Guitar Tab






click on, click off


Tab for "Afterlife Solo" - Avenged Sevenfold Rating 4Print Guitar Tabs
select alternative YouTube videos below...
Tweak the search term to refine the YouTube video results:         
Share on Facebook

Learn to play this song and others via online guitar lessons @ JamPlay.com!

-------------------------------------------------------------------------------
			     "Afterlife" solo --- Avenged Sevenfold
-------------------------------------------------------------------------------
Updated: July 10th, 2008 (9:00 P.M.)



Tabbed by: [travis]



Tuning: Drop D: D A D G B E (low to high)



This song is in the key of "F Major." (F G A Bb C D E F)


This solo has 32nd notes, and 16th notes all around,
which is what makes this solo hard.


I decided to redo this whole tab, since some people wanted the 
other guitar's melody, and rhythm track as well. 


Legend:
h = hammer on
p = pull off
V = wammy bar
-1 = push wammy bar down 1 step
-S = push wammy bar to slack
b = bend
1 = full step bend
.5 = half step bend
__ = hold bend
/ = slide up
\ = slide down
hph = pick the phrase once
~ = vibrato
... = palm mute
() = note barely heard, or bring bent note back to normal




Guitars 3 and 4: Listen for the rhythm of each chord.
e|------------------------------|
B|------------------------------|
G|------------------------------|
D|--0-----8-----5-----8-----7---|
A|--0-----8-----5-----8-----7---|
D|--0-----8-----5-----8-----7---|



Guitar 1:
e|-----------------------------------------------------------------------------|
B|---------5h6h8p6p5p\3h/5h6h8h/15~~~~~(15)\---------5h6h8p6p5p\3h/5h6h8h/17~~~|
G|-----5-7---------------------------------------5-7---------------------------|
D|-----------------------------------------------------------------------------|
A|-5-8---------------------------------------5-8-------------------------------|
D|-----------------------------------------------------------------------------|
   ...                                       ...


Guitar 1:
e|----------------------------------------|
B|---------5h8p6p5p\3h/5h6h8h/20~~~~(20)\-|
G|-----5-7--------------------------------|
D|----------------------------------------|
A|-5-8------------------------------------|
D|----------------------------------------|
   ...


Really Fast:
Guitar 1:
e|-/13p\8p6--(6)h8p6p5-------------------------------------------------------|
B|---------------------8p5/-13p10h11h13--------------------------------------|
G|--------------------------------------\7h9p7--10h/12p\9p7------------------|
D|----------------------------------------------------------11p9p7h8--11h/12-|
A|---------------------------------------------------------------------------|
D|---------------------------------------------------------------------------|

+++++++++++++++++++++++
Intro Lick:
Guitar 1:
e|--------------------------------------------------------------------------|
B|-10p\8-10--10h/17~~(17)\-10-8--10-8-10-(10)/18~~~~(18)\10-8-10-(10)/20~~~-|
G|--------------------------------------------------------------------------|
D|--------------------------------------------------------------------------|
A|--------------------------------------------------------------------------|
D|--------------------------------------------------------------------------|

Guitar 2:
e|-----------------------------------------------------------------|
B|-8p\5-6--6h/13~~(13)\-6-5--6-5-6-(6)/15~~~~(15)\6-5-6--(6)/17~~~-|
G|-----------------------------------------------------------------|
D|-----------------------------------------------------------------|
A|-----------------------------------------------------------------|
D|-----------------------------------------------------------------|

++++++++++++++++++++++
Intro Lick Continued:
Guitar 1:
         1         .5__________
e|------------------------------------|
B|-18--20b---20---22b~~~~~~~~~~(22)\--|
G|------------------------------------|
D|------------------------------------|
A|------------------------------------|
D|------------------------------------|

Guitar 2:         
        .5          1__________
e|------------------------------------|
B|-15--17b---17---18b~~~~~~~~~~(18)\--|
G|------------------------------------|
D|------------------------------------|
A|------------------------------------|
D|------------------------------------|


Really Fast:
Guitar 1:
e|-17-16-15-13-15-16-17-16-15-13-15-16-15-13----------------------13-16-17~~~(17)\-|
B|-------------------------------------------15----------------15------------------|
G|----------------------------------------------14-14-------14---------------------|
D|-------------------------------------------------------15------------------------|
A|----------------------------------------------------17---------------------------|
D|---------------------------------------------------------------------------------|


Really Fast:
Guitar 1:
e|-/13-12-10-12-13-12-10-------13-10-------------------------10-12-13~~(13)\-|
B|-----------------------11-11-------11-------------------11-----------------|
G|-----------------------------------------10----------10--------------------|
D|--------------------------------------12----12----12-----------------------|
A|-----------------------------------------------13--------------------------|
D|---------------------------------------------------------------------------|


Really Fast:
Guitar 1:
e|-18-17-16-15-16-17-18-17-16-16------------------------------------18~~~~(18)\-|
B|-------------------------------18p16p15-/19-19-----------------15-------------|
G|------------------------------------------------------------15----------------|
D|-----------------------------------------------19-19-----16-------------------|
A|-----------------------------------------------------/17----------------------|
D|------------------------------------------------------------------------------|


Really Fast:
Guitar 1:
e|-18-17-15----15-17-18-17-15-------------------------18h/23\13-12-----------------16-17/22~~~|
B|----------18----------------18-------------------18--------------10---------17h18-----------|
G|-------------------------------15-------------15-----------------------18h19----------------|
D|----------------------------------15-------15----------------------/19----------------------|
A|-------------------------------------17-17--------------------------------------------------|
D|--------------------------------------------------------------------------------------------|

Really Fast:
Guitar 1:
e|----------------------15-------------------------15-------------------|
B|-15-18-15-13-15-13-15----15-15-13-15-18-15-13-15----15-13-18-15-13-15-|
G|----------------------------------------------------------------------|
D|----------------------------------------------------------------------|
A|----------------------------------------------------------------------|
D|----------------------------------------------------------------------|


Really Fast:
Guitar 1:
e|-15-----------------------------15-----------------------15-----------------15---------------|
B|---15-13-18-15-18-15-18-15-13-15--15-13-15-13-15-18-15-15--15-13-15-18-15-15--15-13-15-18-15-|
G|---------------------------------------------------------------------------------------------|
D|---------------------------------------------------------------------------------------------|
A|---------------------------------------------------------------------------------------------|
D|---------------------------------------------------------------------------------------------|


Really Fast: You can either play the 22 on the B string or the (17) instead.
Guitar 1:
e|------------(17)--------------------(17)--------------(17)---------------|
B|-18-20-18-17-22-18-18-17-18-20-18-18-22-18-17-18-20-18-22-18-17-18-20-18-|
G|-------------------------------------------------------------------------|
D|-------------------------------------------------------------------------|
A|-------------------------------------------------------------------------|
D|-------------------------------------------------------------------------|

Really Fast:
Guitar 1:
e|-18-17-15----------17p15p13h17----------------------------------------------------------------|
B|----------18-16-14-------------15-14-13----------12-14-12-------------14----------------------|
G|----------------------------------------15----12----------12----------------------------14-15-|
D|-------------------------------------------15----------------15-14-15----15-14-15----15-------|
A|----------------------------------------------------------------------------------17----------|
D|----------------------------------------------------------------------------------------------|


Guitar 1: After you bend the 16 and bring it back to normal
          press the wammy bar down.
     1_______________        1_________         
e|-------------------------16b~~~~~~~~~(16)\---------|
B|------------------------------------------\--------|
G|-17b~~~~~~~~~~~~~~~(17)--------------------\-------|
D|--------------------------------------------\------|
A|---------------------------------------------\-----|
D|----------------------------------------------\----|


Please Rate and Comment This Tab
[travis]
									


911Tabs.com - tabs search engine
More "Afterlife Solo" tabs @ 911Tabs

A Guide to Tab NotationGuitar TabsGuitar ResourcesGuitar TabsPrivacy PolicyGuitar TabsContact

Online Guitar Lessons

Avenged Sevenfold Guitar Tabs - Over 200,000 chords, guitar and bass tabs with video. Find tabs, video guitar lessons and more.