Music Guitar Tab, Tabs with MP3, ringtones, ringtone, concert tickets, guitar lessons, guitar tabs easy, guitar hero

Guitar Tabs Guitar Chords Bass Tabs
 Web Guitar Tabs
Guitar Lessons
 
Lyrics abcdefghijklmnopqrstuvwxyz # Top 100 Lyrics

Guitar Tabs
Guitar Tab






click on, click off


Tab for "Afterlife" - Avenged Sevenfold Rating 4Print Guitar Tabs
select alternative YouTube videos below...
Tweak the search term to refine the YouTube video results:         
Share on Facebook

Learn to play this song and others via online guitar lessons @ JamPlay.com!

Afterlife by Avenged Sevenfold.

Tabbed by jedimaster123.   e-mail at masterjedi_sentinel@hotmail.com

                         SOLO!!!!!!!!

The main reason I'm putting this tab up is for the solo. The rest of the tab you've
probably seen in other tabs, but i fixed whatever i could, especially in the duet. PLEASE RATE!!!


|Legend|

b - bend
br - bend/release
(n) - ghost note
~ - vibrato
h - hammmer on
p - pull off
/ - slide upwards
. - palm muted

Guitar 1 - Syn                      SOLOOOOOOOO!!!!   GREAT SOLO!!!!!
Guitar 2 - Zack
Guitar 3 - Extra

{Intro} (After the big orchestra thing)

Guitar 1

e|------------------------------------|
b|-5---6----/13~~~----\5---6--5--6----|
g|------------------------------------|
d|------------------------------------|
a|------------------------------------|
d|------------------------------------|

Guitar 2

e|------------------------------------|
b|-8---10---/17~~~----\8---10--8--10--|
g|------------------------------------|
d|------------------------------------|
a|------------------------------------|
d|------------------------------------|

Guitar 1

e|---------------------------------------|
b|-5-----6-------/15~~~-----\5---6-------|
g|---------------------------------------|
d|---------------------------------------|
a|---------------------------------------|
d|---------------------------------------|

Guitar 2

e|---------------------------------------|
b|-8-----10------/19~~~-----\8---10------|
g|---------------------------------------|
d|---------------------------------------|
a|---------------------------------------|
d|---------------------------------------|


Guitar 1

e|-------------------------------------------|
b|--5---6----/17~~~----------(17)~~~---------|
g|-------------------------------------------|
d|-------------------------------------------|
a|-------------------------------------------|
d|-------------------------------------------|

Guitar 2

e|-------------------------------------------|
b|--8---10---/21~~~-----------(20)~~~--------|
g|-------------------------------------------|
d|-------------------------------------------|
a|-------------------------------------------|
d|-------------------------------------------|


Guitar 1

e|-------------------------------------------|
b|--15---17br(half)-------18bFull)~~~--------|
g|-------------------------------------------|
d|-------------------------------------------|
a|-------------------------------------------|
d|-------------------------------------------|

Guitar 2

e|-------------------------------------------|
b|--19---21br(half)-------22b(full)~~~-------|
g|-------------------------------------------|
d|-------------------------------------------|
a|-------------------------------------------|
d|-------------------------------------------|


Guitar 1

e|------------------------------------------------------|
b|-17--18--17---------17--18--17--------17--18--17------|
g|-------------19----------------19----------------19---|
d|----------------19----------------19------------------|
a|------------------------------------------------------|
d|------------------------------------------------------|

Guitar 2

e|-15--17--15---------15--18--15--------15--18--15------|
b|-------------18-15-------------18--15------------18---|
g|------------------------------------------------------|
d|------------------------------------------------------|
a|------------------------------------------------------|
d|------------------------------------------------------|


Guitar 1

e|------------------------------------------------------|
b|-17--18--17---------17--18--17--------17--18--17------|
g|-------------19----------------19----------------19---|
d|----------------20----------------20------------------|
a|------------------------------------------------------|
d|------------------------------------------------------|

Guitar 2

e|-15--17--15---------15--18--15--------15--18--15------|
b|-------------18-15-------------18--15------------18---|
g|------------------------------------------------------|
d|------------------------------------------------------|
a|------------------------------------------------------|
d|------------------------------------------------------|

Guitar 1

e|-17--18--17--------17-18--17--------17--18--17--------|
b|------------20-17------------20-17-------------20-----|
g|------------------------------------------------------|
d|------------------------------------------------------|
a|------------------------------------------------------|
d|------------------------------------------------------|

Guitar 2

e|-20--22--20--------20-22--20--------20--22--20-------|
b|------------23-20------------23-20-------------23----|
g|-----------------------------------------------------|
d|-----------------------------------------------------|
a|-----------------------------------------------------|
d|-----------------------------------------------------|

Guiatr 1

e|-17--18--17--------17-18--17--------18b(full)---------|
b|------------20-17------------20-17--------------------|
g|------------------------------------------------------|
d|------------------------------------------------------|
a|------------------------------------------------------|
d|------------------------------------------------------|


Guitar 2

e|-20--22--20--------20-22--20--------22b(Full)--------|
b|------------23-20------------23-20-------------------|
g|-----------------------------------------------------|
d|-----------------------------------------------------|
a|-----------------------------------------------------|
d|-----------------------------------------------------|

Guitar 3 - Four times
(This is the backing rythm played throughout the intro duet)

e|--------------------------|
b|--------------------------|
g|--------------------------|
d|-0--0-0--0-0--0--0-0-0-0--|
a|-0--0-0--0-0--0--0-0-0-0--|
d|-0--0-0--0-0--0--0-0-0-0--|


e|--------------------------|
b|--------------------------|
g|-3--3-3--3-3--3--3-3-3-3--|
d|-3--3-3--3-3--3--3-3-3-3--|
a|-1--1-1--1-1--1--1-1-1-1--|
d|--------------------------|


e|--------------------------|
b|--------------------------|
g|--------------------------|
d|-5--5-5--5-5--5--5-5-5-5--|
a|-5--5-5--5-5--5--5-5-5-5--|
d|-5--5-5--5-5--5--5-5-5-5--|


e|--------------------------|
b|--------------------------|
g|--------------------------|
d|-1--1-1--1-1--1--1-1-1-1--|
a|-1--1-1--1-1--1--1-1-1-1--|
d|-1--1-1--1-1--1--1-1-1-1--|

{Fill}

Guitar 1

e|----------------------------------------|
b|----------------------------------------|
g|----------------------------------------|
d|----------------------------------------|
a|-5h8p5--5h8p5--------------5h8p5---5h8--|
d|------6--------6p0--0-0---0------6------|
                      . .   .

e|----------------------------------|
b|----------------------------------|
g|----------------------------------|
d|----------------------------------|
a|-p5-------------------------------|
d|----6p0-0--0-0--------------------|
          .  . .

{Verse (part 1)}

Guitars 1 & 2 - Five Times

e|----------------------------------------|
b|----------------------------------------|
g|----------------------------------------|
d|----------------------------------------|
a|-5h8p5--5h8p5--------------5h8p5---5h8--|
d|------6--------6p0--0-0---0------6------|
                      . .   .

e|----------------------------------|
b|----------------------------------|
g|----------------------------------|
d|------------------3---5---6-------|
a|-p5---------------3---5---6-------|
d|----6p0-0--0-0----3---5---6-------|
          .  . .

{Fill}

Guitars 1 & 2

e|----------------------------------|
b|----------------------------------|
g|----------------------------------|
d|---6-----5-----3------------------|
a|---6-----5-----3------------------|
d|---6-----5-----3------------------|


{Verse (part 2)}

Guitars 1 & 2

e|----------------------------------|
b|----------------------------------|
g|----(Rest one bar)----------------|
d|----------------------------------|
a|----------------------------------|
d|----------------------------------|

Guitar 1

e|----------------------------------|
b|----------------------------------|
g|----------------9--9-/10-10-/12---|
d|----------------x--x--x--x---x----|
a|----------------7--7-/8--8--/10---|
d|----------------------------------|

Guitar 2

e|----------------------------------|
b|----------------------------------|
g|--5--5--5-5-5-5--5--5-5--5--5-----|
d|--5--5--5-5-5-5--5--5-5--5--5-----|
a|--3--3--3-3-3-3--3--3-3--3--3-----|
d|----------------------------------|

Guitars 1 & 2

e|----------------------------------|
b|----------------------------------|
g|----(Rest one bar)----------------|
d|----------------------------------|
a|----------------------------------|
d|----------------------------------|

Guitar 1

e|----------------------------------|
b|----------------------------------|
g|---------------12-12-/14-14-/15---|
d|----------------x--x---x--x---x---|
a|---------------10-10-/12-12-/13---|
d|----------------------------------|

Guitar 2

e|----------------------------------|
b|----------------------------------|
g|--5--5--5-5-5-5--5--5-5--5--5-----|
d|--5--5--5-5-5-5--5--5-5--5--5-----|
a|--3--3--3-3-3-3--3--3-3--3--3-----|
d|----------------------------------|

Guitars 1 & 2

e|----------------------------------|
b|----------------------------------|
g|----------------------------------|
d|----------------------------------|
a|----------------------------------|
d|-0-0-8-0-7-0-0-0-8-0-7-0-8-0-7-0--|

e|----------------------------------|
b|----------------------------------|
g|--5--5--5-5-5-5--5--5-5--5--5-----|
d|--5--5--5-5-5-5--5--5-5--5--5-----|
a|--3--3--3-3-3-3--3--3-3--3--3-----|
d|----------------------------------|


e|----------------------------------|
b|----------------------------------|
g|--3--3--3-3-3-3--3--3-3--3--3-----|
d|--3--3--3-3-3-3--3--3-3--3--3-----|
a|--1--1--1-1-1-1--1--1-1--1--1-----|
d|----------------------------------|


e|----------------------------------|
b|----------------------------------|
g|----------------------------------|
d|----5----5----6-----6-------------|
a|----3----3----4-----4-------------|
d|----------------------------------|

{Pre-Chorus}

Guitars 1 & 2 - Two Times

e|----------------------------------|
b|----------------------------------|
g|----------------------------------|
d|-0----------0-------3------3------|
a|-0----------0-------3------3------|
d|-0--0-0-0-0-0--0-0--3--3-3-3------|
      . . . .    . .     . .

e|----------------------------------|
b|----------------------------------|
g|------------------------------9---|
d|-8----------8--------10-------9---|
a|-8----------8--------10---7-7-7---|
d|-8--8-8-8-8-8--10-10-10-----------|
      . . . .    .  .       . .
{Chorus}

Guitars 1 & 2 - Four TImes

e|----------------------------------|
b|----------------------------------|
g|----------------------------------|
d|--3--3--3--3--3--3--3--3----------|
a|--3--3--3--3--3--3--3--3----------|
d|--3--3--3--3--3--3--3--3----------|


e|----------------------------------|
b|----------------------------------|
g|--5--5--5--5--5--5--5--5----------|
d|--5--5--5--5--5--5--5--5----------|
a|--3--3--3--3--3--3--3--3----------|
d|----------------------------------|


e|----------------------------------|
b|----------------------------------|
g|--7--7--7--7--7--7--7--7----------|
d|--7--7--7--7--7--7--7--7----------|
a|--5--5--5--5--5--5--5--5----------|
d|----------------------------------|


e|----------------------------------|
b|----------------------------------|
g|--3--3--3--3--3--3--3--3----------|
d|--3--3--3--3--3--3--3--3----------|
a|--1--1--1--1--1--1--1--1----------|
d|----------------------------------|

{Fill}

Guitars 1 & 2

e|----------------------------------|
b|----------------------------------|
g|--3--3--3--3--3--3--3--3----------|
d|--3--3--3--3--3--3--3--3----------|
a|--1--1--1--1--1--1--1--1----------|
d|----------------------------------|

Repeat:

{Verse} (part 1 & 2)

{Pre-Chorus}

{Chorus}

And Then:

{Bridge}

Guitars 1 & 2

e|----------------------------------|
b|----------------------------------|
g|----------------------------------|
d|----------------------------------|
a|--0-0-0--0-0-0--0-0-0--0-0-0------|
d|--0-0-0--0-0-0--0-0-0--0-0-0------|
    . . .  . . .  . . .  . . .

e|----------------------------------|
b|----------------------------------|
g|----------------------------------|
d|----------------------------------|
a|--8-8-8--8-8-8--8-8-8--8-8-8------|
d|--8-8-8--8-8-8--8-8-8--8-8-8------|
    . . .  . . .  . . .  . . .


e|----------------------------------|
b|----------------------------------|
g|----------------------------------|
d|----------------------------------|
a|--5-5-5--5-5-5--5-5-5--5-5-5------|
d|--5-5-5--5-5-5--5-5-5--5-5-5------|
    . . .  . . .  . . .  . . .

e|----------------------------------|
b|----------------------------------|
g|----------------------------------|
d|----------------------------------|
a|--1-1-1--1-1-1--1-1-1--1-1-1------|
d|--1-1-1--1-1-1--1-1-1--1-1-1------|
    . . .  . . .  . . .  . . .

e|----------------------------------|
b|----------------------------------|
g|----------------------------------|
d|----------------------------------|
a|--0-0-0--0-0-0--0-0-0--0-0-0------|
d|--0-0-0--0-0-0--0-0-0--0-0-0------|
    . . .  . . .  . . .  . . .

e|----------------------------------|
b|----------------------------------|
g|----------------------------------|
d|----------------------------------|
a|--8-8-8--8-8-8--8-8-8--8-8-8------|
d|--8-8-8--8-8-8--8-8-8--8-8-8------|
    . . .  . . .  . . .  . . .


e|----------------------------------|
b|----------------------------------|
g|----------------------------------|
d|----------------------------------|
a|--5-5-5--5-5-5--5-5-5--5-5-5------|
d|--5-5-5--5-5-5--5-5-5--5-5-5------|
    . . .  . . .  . . .  . . .


e|----------------------------------|
b|----------------------------------|
g|----------------------------------|
d|----------------------------------|
a|--8-8-8--8-8-8--7-7-7--7-7-7------|
d|--8-8-8--8-8-8--7-7-7--7-7-7------|
    . . .  . . .  . . .  . . .

Guitars 1 & 2 -Four times

e|----------------------------------|
b|----------------------------------|
g|----------------------------------|
d|----0----0---0---0--0--0----------|
a|----0----0---0---0--0--0----------|
d|----0----0---0---0--0--0----------|


e|----------------------------------|
b|----------------------------------|
g|----------------------------------|
d|----8----8---8---8--8--8----------|
a|----8----8---8---8--8--8----------|
d|----8----8---8---8--8--8----------|


e|----------------------------------|
b|----------------------------------|
g|----------------------------------|
d|----5----5---5---5--5--5----------|
a|----5----5---5---5--5--5----------|
d|----5----5---5---5--5--5----------|


e|----------------------------------|
b|----------------------------------|
g|----------------------------------|
d|----8----8---8---7----7--7--------|
a|----8----8---8---7----7--7--------|
d|----8----8---8---7----7--7--------|


Solo Down Here!!

The entire thing is almost completely correct. Well, the very last part of the
solo is just too fast, so
that part i tabbed a bit randomly.

Solo (Guitar 1)

e|----------------------------------|
b|----------5-6-5---5-6-8-/-15b16---|
g|--------5-------7-----------------|
d|------5---------------------------|
a|--5-7-----------------------------|
d|----------------------------------|
    . .

e|----------------------------------|
b|----------5-6-5---5-6-8-/-17b18---|
g|--------5-------7-----------------|
d|------5---------------------------|
a|--5-7-----------------------------|
d|----------------------------------|
    . .

e|----------------------------------|
b|----------5-6-5---5-6-8-/-20b21---|
g|--------5-------7-----------------|
d|------5---------------------------|
a|--5-7-----------------------------|
d|----------------------------------|
    . .


e|--13\--5-6-7-6--------------------------------------------------------------------|
b|---------------8-5-6-5\-3-5-6-5\-2/-9\-3-2-------2-3-4b(Full)-/-6-3/-5--6--/13~~--|
g|-------------------------------------------4-3-4----------------------------------|
d|----------------------------------------------------------------------------------|
a|----------------------------------------------------------------------------------|
d|----------------------------------------------------------------------------------|

e|------------------------------------------------------------------------------------------------|
b|-5-6-5-6-5~~-6/-15~~---\3-5-6-5~~-6/-17~~~--15-17br(full)----18b(full)<tremolo vibrato>~~~------|
g|------------------------------------------------------------------------------------------------|
d|------------------------------------------------------------------------------------------------|
a|------------------------------------------------------------------------------------------------|
d|------------------------------------------------------------------------------------------------|

e|--16-17-16-15-13-15-16-17-16-15-13-15-16-17-13----------------------13-15-16-17~~~~------|
b|-----------------------------------------------15----------------15----------------------|
g|--------------------------------------------------14----------14-------------------------|
d|-----------------------------------------------------15----15----------------------------|
a|--------------------------------------------------------17-------------------------------|
d|-----------------------------------------------------------------------------------------|

e|-13-12-10----12-13-12-11-10----12-13-12-11-10----------------------10-11-12-13~~~~------|
b|----------11----------------11----------------11----------------11----------------------|
g|-------------------------------------------------10----------10-------------------------|
d|----------------------------------------------------12----12----------------------------|
a|-------------------------------------------------------13-------------------------------|
d|----------------------------------------------------------------------------------------|


e|-/18-17-16-15-16-17-18\10-13-10-------------------------18~~~~~-------------|
b|--------------------------------10-------------------15---------------------|
g|-----------------------------------11-------------17------------------------|
d|--------------------------------------12----14/18---------------------------|
a|-----------------------------------------13---------------------------------|
d|----------------------------------------------------------------------------|

e|-18-17-15-13-15-17-18--13----------------------------13/22-16-13-------------------------21~~~--|
b|--------------------------13----------------------13-------------13----------------21-17--------|
g|-----------------------------14----------------14-------------------14----------15--------------|
d|--------------------------------14----------14-------------------------15----17-----------------|
a|-----------------------------------15----16-------------------------------18--------------------|
d|--------------------------------------15--------------------------------------------------------|


(This part down here's a little jumbled up. A little only....)


e|-----10-13-10----10-15-10----10-13-10---10-15-10---10-13-10----10-15-10----10-13-10----10-15-10--|
b|--15----------15----------15----------15---------15---------15----------15----------15-----------|
g|-------------------------------------------------------------------------------------------------|
d|-------------------------------------------------------------------------------------------------|
a|-------------------------------------------------------------------------------------------------|
d|-------------------------------------------------------------------------------------------------|


e|-----10-13-10----10-15-10----10-13-10---10-15-10---10-13-10----10-15-10----10-13-10----10-15-10--|
b|--15----------15----------15----------15---------15---------15----------15----------15-----------|
g|-------------------------------------------------------------------------------------------------|
d|-------------------------------------------------------------------------------------------------|
a|-------------------------------------------------------------------------------------------------|
d|-------------------------------------------------------------------------------------------------|


e|----13-14-13----13-15-17-15-13-14-15----13-14-13----13-14-13----13-14-13---13-17-13----13-15----|
b--17----------17----------------------17----------17----------17----------17---------17-------17-|
g|------------------------------------------------------------------------------------------------|
d|------------------------------------------------------------------------------------------------|
a|------------------------------------------------------------------------------------------------|
d|------------------------------------------------------------------------------------------------|


(This is the part which is too fast. Hope its right!)   -   Correct me if I'm wrong pls

e|-18-15-----18-15-----------------------------------15-18-17-15--------------------|
b|------18-15-----18-15----------------------15-18-15-----------18------------------|
g|---------------------17-15-17-15---------15---------------------15----------------|
d|--------------------------------17-----17-------------------------17-----17-18~~--|
a|----------------------------------17-17-----------------------------17-17---------|
d|----------------------------------------------------------------------------------|

e|---------------------------------------------------|
b|-----------18<inverted dive>-(+2)------------------|
g|---------------------------------------------------|
d|--(18)---------------------------------------------|
a|---------------------------------------------------|
d|---------------------------------------------------|

Solo BAckin Rythm

Guitar 2 & 3

e|----------------------------------|
b|----------------------------------|
g|----------------------------------|
d|----0----0---0---0--0--0----------|
a|----0----0---0---0--0--0----------|
d|----0----0---0---0--0--0----------|


e|----------------------------------|
b|----------------------------------|
g|----------------------------------|
d|----8----8---8---8--8--8----------|
a|----8----8---8---8--8--8----------|
d|----8----8---8---8--8--8----------|


e|----------------------------------|
b|----------------------------------|
g|----------------------------------|
d|----5----5---5---5--5--5----------|
a|----5----5---5---5--5--5----------|
d|----5----5---5---5--5--5----------|


e|----------------------------------|
b|----------------------------------|
g|----------------------------------|
d|----8----8---8---7----7--7--------|
a|----8----8---8---7----7--7--------|
d|----8----8---8---7----7--7--------|


{Post Solo}


Guitars 2 & 3

e|----------------------------------|
b|----------------------------------|
g|-7--7--7--7--7--------------------|
d|-7--7--7--7--7--0-----------------|
a|-5--5--5--5--5--0----0---0---0----|
d|----------------0----0---0---0----|
                       .   .   .

e|----------------------------------|
b|----------------------------------|
g|-5--5--5--5--5--------------------|
d|-5--5--5--5--5--2-----------------|
a|-3--3--3--3--3--2----2---2---2----|
d|----------------2----2---2---2----|
                       .   .   .

e|----------------------------------|
b|----------------------------------|
g|-7--7--7--7--7--------------------|
d|-7--7--7--7--7--------------------|
a|-5--5--5--5--5--0-0-0-0-0---0-0-0-|
d|----------------0-0-0-0-0---0-0-0-|
                  . . . . .   . . .

e|----------------------------------|
b|----------------------------------|
g|----------------------------------|
d|----------------------------------|
a|-3--3--3--3--3--2-2-2-2-2--2-2-2--|
d|----------------2-2-2-2-2--2-2-2--|
                  . . . . .  . . .

e|----------------------------------|
b|----------------------------------|
g|-5--5--5--5--5--------------------|
d|-5--5--5--5--5--2-----------------|
a|-3--3--3--3--3--2----2---2---2----|
d|----------------2----2---2---2----|
                       .   .   .

e|----------------------------------|
b|----------------------------------|
g|-7--7--7--7--7--------------------|
d|-7--7--7--7--7--------------------|
a|-5--5--5--5--5--0-0-0-0-0---0-0-0-|
d|----------------0-0-0-0-0---0-0-0-|
                  . . . . .   . . .

e|----------------------------------|
b|----------------------------------|
g|----------------------------------|
d|----------------------------------|
a|-3--3--3--3--3--2-2-2-2-2--2-2-2--|
d|----------------2-2-2-2-2--2-2-2--|
                  . . . . .  . . .


e|----------------------------------|
b|----------------------------------|
g|----------------------------------|
d|--0-----2----3----5-----2---------|
a|--0-----2----3----5-----2---------|
d|--0-----2----3----5-----2---------|


Repeat:

{Chorus}


And then:

Guitars 2 & 3

e|----------------------------------|
b|----------------------------------|
g|----------------------------------|
d|-0--------------------------------|
a|-0--------------------------------|
d|-0--------------------------------|

Guitar 1

e|-------------------------------------|
b|---/7~~~~~~~~------------------------|
g|-------------------------------------|
d|-------------------------------------|
a|-------------------------------------|
d|-------------------------------------|

THATS ITS PPLZ!!! PLEASAE ACCEPT THSI TAB ULTIMATE GUITAR!!!

(and pls rate ppl if it does.)

jedimaster123     email at masterjedi_sentinel@hotmail.com


Tablature Legend
----------------
 h   - hammer-on
 p   - pull-off
 b   - bend
 pb  - pre-bend
 r   - bend release (if no number after the r, then release immediately)
 /\  - slide into or out of (from/to "nowhere")
 s   - legato slide
 S   - shift slide
<n>  - natural harmonic
[n]  - artificial harmonic
n(n) - tapped harmonic
 ~   - vibrato
 tr  - trill
 T   - tap
 TP  - trem. picking
 PM  - palm muting
 <>  - volume swell (louder/softer)
 x   - on rhythm slash represents muted slash
 o   - on rhythm slash represents single note slash
									


911Tabs.com - tabs search engine
More "Afterlife" tabs @ 911Tabs

A Guide to Tab NotationGuitar TabsGuitar ResourcesGuitar TabsPrivacy PolicyGuitar TabsContact

Online Guitar Lessons

Avenged Sevenfold Guitar Tabs - Over 200,000 chords, guitar and bass tabs with video. Find tabs, video guitar lessons and more.