Music Guitar Tab, Tabs with MP3, ringtones, ringtone, concert tickets, guitar lessons, guitar tabs easy, guitar hero

Guitar Tabs Guitar Chords Bass Tabs
 Web Guitar Tabs
Guitar Lessons
 
Lyrics abcdefghijklmnopqrstuvwxyz # Top 100 Lyrics

Guitar Tabs
Guitar Tab






click on, click off


Tab for "Afterlife" - Avenged Sevenfold Rating 4Print Guitar Tabs
select alternative YouTube videos below...
Tweak the search term to refine the YouTube video results:         
Share on Facebook

Learn to play this song and others via online guitar lessons @ JamPlay.com!

Okay, since the super special awesome solo is so hard,
i'm puttin in 2 guitars there.

Its freakin hard to tab, so it might not be 100%.
Its freakin played fast.


I only put down the lead and harmony guitar, for the rythm you can check
the multiple other tabs posted.


Guitar 1 - Lead
Guitar 2 - Harmony

Guitar 1:

       |--3-|  |---3--|  |--3--|              |--3--|  |--3--|  |--3--|
  S S  S  S S  S   S  S  S  S  S  Q      S S  S  S  S  S  S  S  S  S  S   Q
|--------------------------------------|-------------------------------------|
|-----------------13h15p13-------17hb--|-----------------13h15p13--------18--|b
|----------12h15-----------15p12-------|-----------12h15----------15p12------|
|-0-0-12h14----------------------------|-0-0-12h14---------------------------|
|-0-0----------------------------------|-0-0---------------------------------|
|-0-0----------------------------------|-0-0---------------------------------|
  . .                                    . .

Guitar 2:

Rest

Guitar 1:

Here comes the hard part!

       |--3--|  |--3--|  |--3--|
  S S  S  S  S  S  S  S  S  S  S  Q
|--------------------------------15b--|
|-----------------13h15p13------------|
|-----------12h15----------15p12------|
|-0-0-12h14---------------------------|
|-0-0---------------------------------|
|-0-0---------------------------------|
  . .

   |--3--|  |--3--|  |--3--|  |--3--|  |--3--|  |--3--|  |--3--|  |--3--|
   S  S  S  S  S  S  S  S  S  S  S  S  S  S  S  S  S  S  S  S  S  S  S  S
|-------------------------------------------------------------------------|
|-20p18p17s18p17p15s17p15s13s20p18p17-------------------------------------|
|-------------------------------------20p18p17s18p17p15-15p14p12----------|
|----------------------------------------------------------------15p14p12-|
|-------------------------------------------------------------------------|
|-------------------------------------------------------------------------|

Guitar 2:

Rest


Guitar 1:

    E   E   Q  E  E  Q     E   E   Q    Q    Q     E   E   Q  E  E  Q
|----------------------|-----------------------|----------------------|
|---------/17----------|---------/17v-(17)\----|---------/17----------|
|-/15-s17-----17-15-17-|-/15-s17------------15-|-/15-s17-----17-15-17-|
|----------------------|-----------------------|----------------------|
|----------------------|-----------------------|----------------------|
|----------------------|-----------------------|----------------------|

Guitar 2:

    E   E   Q  E  E  Q     E   E   Q    Q    Q     E   E   Q  E  E  Q
|----------------------|-----------------------|----------------------|
|----------------------|-----------------------|----------------------|
|---------/15----------|---------/15v-(15)\----|---------/15----------|
|-/12-s14-----14-12-14-|-/12-s14------------15-|-/12-s14-----14-12-14-|
|----------------------|-----------------------|----------------------|
|----------------------|-----------------------|----------------------|


Guitar 1:

    E   Q   E   H
|------------------|
|--------------17b-|
|-/15-s17b-15------|
|------------------|
|------------------|
|------------------|

Guitar 2:

    E   Q   E   H
|------------------|
|------------------|
|--------------15b-|
|-/12-s14b-12------|
|------------------|
|------------------|

Okay, here comes the super omega hard part.  The notes are 16th notes
in triplets (I think, I really can't be sure)
and they are like ultra hard to hit.since there is no more harmony guitar
through the rest of
the solo, I only laid down one guitar.
NO HAMMER ONS OR PULL OFFS ALL IS SHREDDING AND SWEEP PICKING

   T  T  T  T  T  T  T  T  T  T  T  T  T  T  T  T  T  T  T  T  T  T  T  T  T
|-18-17-15-18-17-15-18-17-15-18-17-15-18-17-15-------------------------------|
|----------------------------------------------15----------------------------|
|-------------------------------------------------15-------------------------|
|----------------------------------------------------15-------------------15-|
|-------------------------------------------------------15-------------15----|
|----------------------------------------------------------15-12-15-17-------|

  T  T  T  E
-------15-18v----|
----15-----------|
-15--------------|   omg!  super special awesome!
-----------------|
-----------------|
-----------------|

   T  T  T  T  T  T  T  T  T  T  T  T  T  T  T  T  T  T  T  T  T  T  T  T  T
|----------------------------------------------------------------------------|
|-18-17-15-18-17-15-18-17-15-18-17-15-18-17-15-15----------------------------|
|-------------------------------------------------15-------------------------|
|----------------------------------------------------15----------------------|
|-------------------------------------------------------15-------------------|
|----------------------------------------------------------15-12-10-12-15-17-|

  T  T  T  T  T  E
---------------------|
----------15-17-18v--|
-------15------------|   Thats all I have time to update now, will have the
----15---------------|   rest done soon I promise.
-15------------------|
---------------------|


|-24-22-20-24-22-20-24-22-20----------------------------------22v-|
|----------------------------22----------------------------23-----|
|-------------------------------21----------------------22--------|
|----------------------------------20----------------22-----------|
|-------------------------------------23----------22--------------|
|----------------------------------------20-17-22-----------------|

|-24-22-20-24-22-20-24-22-20----------------------------------24b------------|
|----------------------------22----------------------------23-----23---------|
|-------------------------------21----------------------22----------22-------|
|----------------------------------20----------------22---------------22-----|
|-------------------------------------23----------22--------------------22---|
|----------------------------------------20-17-22-------------------------22-|

|---------------------------------------------------------------|
|-15-15-15-15-18-15-15-15-17-15-15-15-18-15-15-15-18-15-15-17--o|
|---------------------------------------------------------------|
|---------------------------------------------------------------|
|--------------------------------------------------------------o|
|---------------------------------------------------------------|

|-15-15-15-15-18-15-15-15-17-15-15-15-18-15-15-15-17-15-15-18-15-15-17-|
|----------------------------------------------------------------------|
|----------------------------------------------------------------------|
|----------------------------------------------------------------------|
|----------------------------------------------------------------------|
|----------------------------------------------------------------------|
|----------------------------------------------------------------------|

Then somethin crazy like this:

|-18-15-15-17-15-15----15-15-------------------------------------------------|
|-------------------18-------17-15-15-18-15-17-15-----15---------------------|
|-------------------------------------------------1715--14151412----1412-----|
|---------------------------------------------------------------1412----14---|
|-------------------------------------------------------------------------12-|
|----------------------------------------------------------------------------|


Back into somethin easy:


|------|-------|
|------|-17b---|
|-17b--|-------|  rest for a while now, you deserve it
|------|-------|
|------|-------|
|------|-------|

|-----------------|-----------------------------------------|
|-----------------|-----------------------------------------|
|-10-12-15-17-15--|-----------------------------------------|
|-----------------|-----------------------------------------|
|-----------------|-----------------------------------------|
|-----------------|-15h17p15h17p15h17p15v-12s15-12-s7-s9-s7-|


Whew, I'm gonna update this alot, because right now it pry isn't even close.
I'm gonna try to make this perfect.  I know what scale its off of, and I know
all these notes are off of that scale.  So, I'm gonna switch them up alot.

PLEASE LEAVE COMMENTS AND PLEASE RATE!!!!
									


911Tabs.com - tabs search engine
More "Afterlife" tabs @ 911Tabs

A Guide to Tab NotationGuitar TabsGuitar ResourcesGuitar TabsPrivacy PolicyGuitar TabsContact

Online Guitar Lessons

Avenged Sevenfold Guitar Tabs - Over 200,000 chords, guitar and bass tabs with video. Find tabs, video guitar lessons and more.