Music Guitar Tab, Tabs with MP3, ringtones, ringtone, concert tickets, guitar lessons, guitar tabs easy, guitar hero

Guitar Tabs Guitar Chords Bass Tabs
 Web Guitar Tabs
Guitar Lessons
 
Lyrics abcdefghijklmnopqrstuvwxyz # Top 100 Lyrics

Guitar Tabs
Guitar Tab






click on, click off


Tab for "Afterlife" - Avenged Sevenfold Rating 4Print Guitar Tabs
select alternative YouTube videos below...
Tweak the search term to refine the YouTube video results:         
Share on Facebook

Learn to play this song and others via online guitar lessons @ JamPlay.com!

(Intro)

  Guitar 1
e|--------/8-------/10-----------/12-10-12b13-13b15------|
b|--/5-6-----6-5-6-----6-5-6-5-6-------------------------|
g|-------------------------------------------------------|
d|-------------------------------------------------------|
a|-------------------------------------------------------|
d|-------------------------------------------------------|

  Guitar 2
e|-------------------------------------------------------------|
b|---------13~-----------------15~-----------17~--15-17b-19b---|
g|--/12-14-----14-12-14--12-14-----/14-12-14-------------------|
d|-------------------------------------------------------------|
a|-------------------------------------------------------------|
d|-------------------------------------------------------------|

  Guitar 1
e|--15-17-15-------15-17-15-------15-17-15----17-18-17-------17-18-17-------17-18-17----|
b|-----------18-15----------18-15----------18----------20-17----------20-17----------20-|
g|--------------------------------------------------------------------------------------|
d|--------------------------------------------------------------------------------------|
a|--------------------------------------------------------------------------------------|
d|--------------------------------------------------------------------------------------|

   Guitar 2
e|--------------------------------------------15-17-15-------15-17-15-------15-17-15----|
b|--17-18-17-------17-18-17-------17-18-17-------------18-15----------18-15----------18-|
g|-----------19-------------19-------------19-------------------------------------------|
d|--------------19-------------19-------------------------------------------------------|
a|--------------------------------------------------------------------------------------|
d|--------------------------------------------------------------------------------------|

   Guitar 1
e|--20-22-20-------20-22-20-------20-22-20----22b----|
b|-----------23-20----------23-20----------23--------|
g|---------------------------------------------------|
d|---------------------------------------------------|
a|---------------------------------------------------|
d|---------------------------------------------------|

   Guitar 2
e|--17-18-17-------17-18-17-------17-18-17----18b----|
b|-----------20-17----------20-17----------20--------|
g|---------------------------------------------------|
d|---------------------------------------------------|
a|---------------------------------------------------|
d|---------------------------------------------------|

Rhythm Guitar(after the dramatic opera beginning)

e|-----------------------------------------------------------------------|
b|-----------------------------------------------------------------------|
g|-----------------------------------------------------------------------|   (2x)
d|-0--0--0--0--0-0---8--8--8--8--8-8---5--5--5--5--5-5---1--1--1--1--1-1-|
a|-0--0--0--0--0-0---8--8--8--8--8-8---5--5--5--5--5-5---1--1--1--1--1-1-|
d|-0--0--0--0--0-0---8--8--8--8--8-8---5--5--5--5--5-5---1--1--1--1--1-1-|


  Lead Guitar
e|-------------------------------------------------------|
b|-------------------------------------------------------|
g|-------------------------------------------------------|
d|-------------------------------------------------------|
a|--5h8p5-5h8p5--------0--0-0--5h8p5-5h8p5---------------|
d|-------6------6p0----0--0-0-------6------6p0--0--0-0---|
                       +  + +                   +  + +

 Bass
g|---------------------|
d|---------------------|
a|---------------------|
d|--0-3--0-5--0-6------|

 (Verse)
   Lead And Rhythm Guitar
e|---------------------------------------------------------------|
b|---------------------------------------------------------------|
g|---------------------------------------------------------------|        (3x)
d|----------------------------------------------------3--5--6----|
a|--5h8p5-5h8p5-------------5h8p5-5h8p5---------------3--5--6----|
d|-------6-----6p0---0--0-0------6-----6p0----0--0-0--3--5--6----|
                     +  + +                   +  + +

e|---------------------------------------------------------------------|
b|---------------------------------------------------------------------|
g|---------------------------------------------------------------------|
d|----------------------------------------------------3--5--6-6--5--3--|
a|--5h8p5-5h8p5-------------5h8p5-5h8p5---------------3--5--6-6--5--3--|
d|-------6-----6p0---0--0-0------6-----6p0----0--0-0--3--5--6-6--5--3--|
                     +  + +                   +  + +

  Rhythm after short bass part
e|-------------------------------------------------------------|
b|-------------------------------------------------------------|
g|-------------------------------------------------------------|
d|--5--5--5-5-5-5--5--5---(then pause)---5--5--5-5-5-5--5--5---|
a|--3--3--3-3-3-3--3--3------------------3--3--3-3-3-3--3--3---|
d|-------------------------------------------------------------|


   Lead
e|-----------------------------------------------------------|
b|-----------------------------------------------------------|
g|--(pause)--9-9-9-/-10-/-12---(pause)---12-12-12-/-14-/-15--|
d|-----------------------------------------------------------|
a|-----------7-7-7-/-8--/-10-------------10-10-10-/-12-/-13--|
d|-----------------------------------------------------------|

   Lead silent part
e|-----------------------------|
b|-----------------------------|
g|-----------------------------|(im not sure if its palm muted heh)
d|-----------------------------|
a|-----------------------------|
d|--0-0-8-0-7-0-5-0-8-0-7/10~--|

 Rhythm
e|--------------------------------------------------------|
b|--------------------------------------------------------|
g|--------------------------------------------------------|
d|--5--5--5-5-5-5--5--5--3--3--3-3-3-3--3--3--5--5--6--6--|
a|--3--3--3-3-3-3--3--3--1--1--1-1-1-1--1--1--3--3--4--4--|
d|--------------------------------------------------------|


Lead and Rhythm
e|------------------------------------------------------------------------------|
g|------------------------------------------------------------------------------|
b|------------------------------------------------------------------------9-----|  (2x)
d|--0----------0-------3------3-----3--8---------8-----8--10-------10-----9-----|
a|--0----------0-------3------3-----3--8---------8-----8--10-------10-7-7-7-----|
d|--0--0-0-0-0-0--0-0--3--3-3-3-3-3-3--8-8-8-8-8-8-8-8-8--10-10-10-10-----------|
       + + + +    + +     + +   + +      + + + +   + +       +  +     + +


(Chorus)

  Rhythm and Lead together

e|------------------------------------------------------------------------------|
g|------------------------------------------------------------------------------|
b|------------------------------------------------------------------------------|  (2x)
d|--3-3-3-3-3-3-3-3--10-10-10-10-10-10-10-10--7-7-7-7-7-7-7-7--8-8-8-8-8-8-8-8--|
a|--3-3-3-3-3-3-3-3--10-10-10-10-10-10-10-10--5-5-5-5-5-5-5-5--8-8-8-8-8-8-8-8--|
d|--3-3-3-3-3-3-3-3--10-10-10-10-10-10-10-10-------------------8-8-8-8-8-8-8-8--|


Then play the (Verse) and (Chorus) again, but this time the chorus is played (4x).

(Bridge)

 Lead and Rhythm
e|----------------------------------------------------------------------------------|
g|----------------------------------------------------------------------------------|
b|----------------------------------------------------------------------------------|
d|----------------------------------------------------------------------------------|
a|--0-0--0-0--0-0--0-0--8-8--8-8--8-8--8-8--5-5--5-5--5-5--5-5--3-3--3-3--3-3--3-3--|
d|--0-0--0-0--0-0--0-0--8-8--8-8--8-8--8-8--5-5--5-5--5-5--5-5--3-3--3-3--3-3--3-3--|
    + +  + +  + +  + +  + +  + +  + +  + +  + +  + +  + +  + +  + +  + +  + +  + +

e|----------------------------------------------------------------------------------|
g|----------------------------------------------------------------------------------|
b|----------------------------------------------------------------------------------|
d|----------------------------------------------------------------------------------|
a|--0-0--0-0--0-0--0-0--8-8--8-8--8-8--8-8--5-5--5-5--5-5--5-5--8-8--8-8--7-7--7-7--|
d|--0-0--0-0--0-0--0-0--8-8--8-8--8-8--8-8--5-5--5-5--5-5--5-5--8-8--8-8--7-7--7-7--|
    + +  + +  + +  + +  + +  + +  + +  + +  + +  + +  + +  + +  + +  + +  + +  + +

e|----------------------------------------------------------------------------------|
g|----------------------------------------------------------------------------------|
b|----------------------------------------------------------------------------------|   (4x)
d|--0-0--0-0--0-0--0-0--8-8--8-8--8-8--8-8--5-5--5-5--5-5--5-5--8-8--8-8--7-7--7-7--|
a|--0-0--0-0--0-0--0-0--8-8--8-8--8-8--8-8--5-5--5-5--5-5--5-5--8-8--8-8--7-7--7-7--|
d|--0-0--0-0--0-0--0-0--8-8--8-8--8-8--8-8--5-5--5-5--5-5--5-5--8-8--8-8--7-7--7-7--|

 [Beginning of solo] 

e|-------------------------------------10v------|
b|-------------------------------10-13----------|
g|-------------10-13-12-10-12-13----------------|
d|-------10-12----------------------------------|
a|----------------------------------------------|
d|--0-0-----------------------------------------|
    + +
e|-------------------------------------12v------|
b|-------------------------------10-13----------|
g|-------------10-13-12-10-12-13----------------|
d|-------10-12----------------------------------|
a|----------------------------------------------|
d|--0-0-----------------------------------------|
    + +
e|-------------------------------------15v------|
b|-------------------------------10-13----------|
g|-------------10-13-12-10-12-13----------------|
d|-------10-12----------------------------------|
a|----------------------------------------------|
d|--0-0-----------------------------------------|
    + +

            I'm starting on the solo and my God is it hard lol
|Legend|

h - hammmer on
p - pull off
/ - slide upwards
+ - palm muted
(pause) - means the guitar does not play anything


Thnx to NO31 and HurricaneSG  for the help  it was very kind of u
     ( Help me if im wrong lol i dont mind being corrected)
									


911Tabs.com - tabs search engine
More "Afterlife" tabs @ 911Tabs

A Guide to Tab NotationGuitar TabsGuitar ResourcesGuitar TabsPrivacy PolicyGuitar TabsContact

Online Guitar Lessons

Avenged Sevenfold Guitar Tabs - Over 200,000 chords, guitar and bass tabs with video. Find tabs, video guitar lessons and more.