Music Guitar Tab, Tabs with MP3, ringtones, ringtone, concert tickets, guitar lessons, guitar tabs easy, guitar hero

Guitar Tabs Guitar Chords Bass Tabs
 Web Guitar Tabs
Guitar Lessons
 
Lyrics abcdefghijklmnopqrstuvwxyz # Top 100 Lyrics

Guitar Tabs
Guitar Tab






click on, click off


Tab for "A Little Piece Of Heaven" - Avenged Sevenfold Rating 4Print Guitar Tabs
select alternative YouTube videos below...
Tweak the search term to refine the YouTube video results:         
Share on Facebook

Learn to play this song and others via online guitar lessons @ JamPlay.com!

This is played in Drop D!!

I got this by playing it on my guitar and watching various bass covers on youtube so 
to them a little bit I guess.

I dunno if it's novice or intermediate so choose for yourself :P

The time signatures are based on the youtube music video to make it easier for you to 
when to play everything

00:23
|------------------------------|
|------------------------------|
|------------------------------|
|--0--0--0-0-0-0-0--0--0-0-0-0-|

------------------------------|------------------------------|
------------------------------|------------------------------|
------------------------------|------------------------------|
--0--0--0-0-0-0-0--0--0-0-0-0-|--3--3--3-3-3-3-3--3--3-3-3-3-|

------------------------------|------------------------------|
------------------------------|------------------------------|
------------------------------|------------------------------|
--3--3--3-3-3-3-3--3--3-3-3-3-|--0--0--0-0-0-0-0--0--0-0-0-0-|

------------------------------|------------------------------|
------------------------------|------------------------------|
------------------------------|------------------------------|
--0--0--0-0-0-0-0--0--0-0-0-0-|--3--3--3-3-3-3-3--3--3-3-3-3-|

                               00:37
------------------------------|--------------------------------------|
------------------------------|--------------------------------------|
------------------------------|--------------------------------------|
--3--3--3-3-3-3-3--3--3-3-3-3-|--0--0--------0--0--------0--0--------|

--------------------------------------------|
--------------------------------------------|
--------------------------------------------|
--0---0---------0---0---------0---0---------|

--------------------------------------|--------------------------------------|
--------------------------------------|--------------------------------------|
--------------------------------------|--------------------------------------|
--3--3--------3--3--------3--3--------|--6--6--------6--6--------6--6--------|

--------------------------------------|
--------------------------------------|
--------------------------------------|
--0--0--------0--0--------0--0--------|

--------------------------------------------|
--------------------------------------------|
--------------------------------------------|
--0---0---------0---0---------0---0---------|

--------------------------------------|--------------------------------------|
--------------------------------------|--------------------------------------|
--------------------------------------|--------------------------------------|
--3--3--------3--3--------3--3--------|--6--6--------6--6--------6--6--------|

00:56
--------------------------------|-----------------------------------|
--------------------------------|-----------------------------------|
--------------------------------|-----------------------------------|
--0----3----0----3----0----3----|--11----7----11----7----11----7----|

--------------------------------|--------------------------------|
--------------------------------|--------------------------------|
--------------------------------|--------------------------------|
--6----9----6----9----6----9----|--0----3----0----3----2----1----|

--------------------------------|-----------------------------------|
--------------------------------|-----------------------------------|
--------------------------------|-----------------------------------|
--0----3----0----3----0----3----|--11----7----11----7----11----7----|

--------------------------------|--------------------------------|
--------------------------------|--------------------------------|
--------------------------------|--------------------------------|
--6----9----6----9----6----9----|--0----3----0----3----2----1----|

1:16
------------------------------------|-------------------|
------------------------------------|-------------------|
------------------------------------|-------------------|
--0--2--3--5--7----2--5--6----10----|--9----------------|

------------------------------------|--------------------|
------------------------------------|--------------------|
------------------------------------|--------------------|
--0--2--3--5--7----2--5--6----10----|--12----------------|

1:26
----------------------------------|--------------------------------|
----------------------------------|--------------------------------|
----------------------------------|--------------------------------|
--12--------------11--------------|--3----6----3----6----3----6----|

----------------------------------|--------------------------------|
----------------------------------|--------------------------------|
----------------------------------|--------------------------------|
--12--------------11--------------|--3----6----3----6----3----6----|

                                 1:39
--------------------------------|--------------------------|
--------------------------------|--------------------------|
--------------------------------|--5-----------5-----------|
--6----9----6----9----6----9----|-----------7-----------7--|

--------------------------|--------------------------|
--------7--8--7--5--------|--------------------------|
--5--8--------------8--7--|--4-----------4-----------|
--------------------------|-----------7-----------7--|

                            1:45
--------------------------||----------------------|---------------------|
--------5--8--7--5--------||*---------------------|---------------------|
--4--7--------------8--7--||*---------------------|---------------------|
--------------------------||---0------2-----------|--8------7-----------|
                                              1:58
---------------------|----------------------||-------------------|
---------------------|---------------------*||-------------------|
---------------------|---------------------*||-------------------|
--5------7------3----|-----5------2---------||--8----------------|

--------------------|--------------------|--------------------|
--------------------|--------------------|--------------------|
--------------------|--------------------|--------------------|
--10----------------|--15----------------|--12----------------|

2:05
---------------------|------------------------|------------------------|
---------------------|------------------------|------------------------|
---------------------|------------------------|------------------------|
--8------8------8----|--10------10------10----|--15------15------15----|

------------------------|----------------------|--------------------------|
------------------------|----------------------|--------------------------|
------------------------|----------------------|--------------------------|
--12------12------12----|--8----8----8----8----|--10----10----10----10----|

--------------------------|----------------------|-------------------|
--------------------------|----------------------|-------------------|
--------------------------|----------------------|-------------------|
--11----11----11----11----|--12--------10--------|--8----------------|

-------------------|--------------------------|-----------------------|
-------------------|--------------------------|-----------------------|
-------------------|--------------------------|-----------------------|
--8----------------|--10----10----10----10----|--10-------------------|

2:26
--------------------|--------------------|----------------------|
--------------------|--------------------|----------------------|
--------------------|--------------------|----------------------|
--8--------8--------|--8--------8--------|--10--------10--------|


----------------------|--------------------|--------------------|
----------------------|--------------------|--------------------|
----------------------|--------------------|--------------------|
--10--------10--------|--3--------3--------|--2--------2--------|

--------------------|----------------------|--------------------|
--------------------|----------------------|--------------------|
--------------------|----------------------|--------------------|
--0--------0--------|--10--------10--------|--8--------8--------|

--------------------|----------------------|----------------------|
--------------------|----------------------|----------------------|
--------------------|----------------------|----------------------|
--8--------8--------|--10--------10--------|--10--------10--------|

--------------------|--------------------|--------------------|
--------------------|--------------------|--------------------|
--------------------|--------------------|--------------------|
--3--------3--------|--2--------2--------|--0--------0--------|

----------------------|-----------|-----------|-----------|-----------|
----------------------|-----------|-----------|-----------|-----------|
----------------------|-----------|-----------|-----------|-----------|
--10--------10--------|-----------|-----------|-----------|-----------|

2:58
--------------------------------|-----------------------------------|
--------------------------------|-----------------------------------|
--------------------------------|-----------------------------------|
--0----3----0----3----0----3----|--11----7----11----7----11----7----|

--------------------------------|--------------------------------|
--------------------------------|--------------------------------|
--------------------------------|--------------------------------|
--6----9----6----9----6----9----|--0----3----0----3----2----1----|

--------------------------------|-----------------------------------|
--------------------------------|-----------------------------------|
--------------------------------|-----------------------------------|
--0----3----0----3----0----3----|--11----7----11----7----11----7----|

--------------------------------|--------------------------------|
--------------------------------|--------------------------------|
--------------------------------|--------------------------------|
--6----9----6----9----6----9----|--0----3----0----3----2----1----|

3:18
------------------------------------|-------------------|
------------------------------------|-------------------|
------------------------------------|-------------------|
--0--2--3--5--7----2--5--6----10----|--9----------------|

------------------------------------|--------------------|
------------------------------------|--------------------|
------------------------------------|--------------------|
--0--2--3--5--7----2--5--6----10----|--12----------------|

3:28
----------------------------------|--------------------------------|
----------------------------------|--------------------------------|
----------------------------------|--------------------------------|
--12--------------11--------------|--3----6----3----6----3----6----|

----------------------------------|--------------------------------|
----------------------------------|--------------------------------|
----------------------------------|--------------------------------|
--12--------------11--------------|--3----6----3----6----3----6----|

                                 3:40
--------------------------------|--------------------------|
--------------------------------|--------------------------|
--------------------------------|--5-----------5-----------|
--6----9----6----9----6----9----|-----------7-----------7--|

--------------------------|--------------------------|
--------7--8--7--5--------|--------------------------|
--5--8--------------8--7--|--4-----------4-----------|
--------------------------|-----------7-----------7--|

                             3:47
--------------------------||----------------------|---------------------|
--------5--8--7--5--------||*---------------------|---------------------|
--4--7--------------8--7--||*---------------------|---------------------|
--------------------------||---0------2-----------|--8------7-----------|

                                                4:00
---------------------|----------------------||-------------------|
---------------------|---------------------*||-------------------|
---------------------|---------------------*||-------------------|
--5------7------3----|-----5------2---------||--8----------------|

--------------------|--------------------|--------------------|
--------------------|--------------------|--------------------|
--------------------|--------------------|--------------------|
--10----------------|--15----------------|--12----------------|

4:07
---------------------|------------------------|------------------------|
---------------------|------------------------|------------------------|
---------------------|------------------------|------------------------|
--8------8------8----|--10------10------10----|--15------15------15----|

------------------------|----------------------|--------------------------|
------------------------|----------------------|--------------------------|
------------------------|----------------------|--------------------------|
--12------12------12----|--8----8----8----8----|--10----10----10----10----|

--------------------------|----------------------|-------------------|
--------------------------|----------------------|-------------------|
--------------------------|----------------------|-------------------|
--11----11----11----11----|--12--------10--------|--8----------------|

-------------------|--------------------------|-----------------------|
-------------------|--------------------------|-----------------------|
-------------------|--------------------------|-----------------------|
--8----------------|--10----10----10----10----|--10-------------------|

4:27
--------------------|--------------------|----------------------|
--------------------|--------------------|----------------------|
--------------------|--------------------|----------------------|
--8--------8--------|--8--------8--------|--10--------10--------|

----------------------|--------------------|--------------------|
----------------------|--------------------|--------------------|
----------------------|--------------------|--------------------|
--10--------10--------|--3--------3--------|--2--------2--------|

--------------------|----------------------|--------------------|
--------------------|----------------------|--------------------|
--------------------|----------------------|--------------------|
--0--------0--------|--10--------10--------|--8--------8--------|

--------------------|----------------------|----------------------|
--------------------|----------------------|----------------------|
--------------------|----------------------|----------------------|
--8--------8--------|--10--------10--------|--10--------10--------|

--------------------|--------------------|--------------------|
--------------------|--------------------|--------------------|
--------------------|--------------------|--------------------|
--3--------3--------|--2--------2--------|--0--------0--------|

----------------------|-----------|-----------|-----------|-----------|
----------------------|-----------|-----------|-----------|-----------|
----------------------|-----------|-----------|-----------|-----------|
--10--------10--------|-----------|-----------|-----------|-----------|

5:00
---------------|---------------|---------------|---------------|---------------|
---------------|---------------|---------------|---------------|---------------|
---------------|---------------|---------------|---------------|---------------|
--0------------|--3------------|--2------------|--0------------|--3------------|

---------------|---------------|---------------|---------------|---------------|
---------------|---------------|---------------|---------------|---------------|
---------------|---------------|---------------|---------------|---------------|
--6------------|--5------------|--2------------|--0------------|--3------------|

---------------|---------------|---------------|---------------|---------------|
---------------|---------------|---------------|---------------|---------------|
---------------|---------------|---------------|---------------|---------------|
--2------------|--0------------|--3------------|--6------------|--5------------|

                5:20
---------------|---------------|---------------|---------------|---------------|
---------------|---------------|---------------|---------------|---------------|
---------------|---------------|---------------|---------------|---------------|
--2------------|--0------------|--0------------|--0------------|--0------------|

---------------|---------------|---------------|---------------|---------------|
---------------|---------------|---------------|---------------|---------------|
---------------|---------------|---------------|---------------|---------------|
--8------------|--8------------|--8------------|--8------------|--5------------|

---------------|---------------|---------------|----------------|
---------------|---------------|---------------|----------------|
---------------|---------------|---------------|----------------|
--5------------|--5------------|--5------------|--10------------|

----------------|----------------|----------------|---------------|
----------------|----------------|----------------|---------------|
----------------|----------------|----------------|---------------|
--10------------|--10------------|--11------------|--0------------|

---------------|---------------|---------------|---------------|---------------|
---------------|---------------|---------------|---------------|---------------|
---------------|---------------|---------------|---------------|---------------|
--0------------|--0------------|--0------------|--8------------|--8------------|

---------------|---------------|---------------|---------------|---------------|
---------------|---------------|---------------|---------------|---------------|
---------------|---------------|---------------|---------------|---------------|
--8------------|--8------------|--5------------|--5------------|--5------------|

---------------|----------------|----------------|----------------|
---------------|----------------|----------------|----------------|
---------------|----------------|----------------|----------------|
--5------------|--10------------|--10------------|--10------------|

----------------|----------------------------|-----------------------------|
----------------|----------------------------|-----------------------------|
----------------|----------------------------|-----------------------------|
--11------------|--0----------------------7--|--0----------------------10--|

-----------------------------|----------------------------|
-----------------------------|----------------------------|
-----------------------------|----------------------------|
--3----------------------10--|--3----------------------7--|

6:08
------------------------------|------------------------------|
------------------------------|------------------------------|
------------------------------|------------------------------|
--0--0--0-0-0-0-0--0--0-0-0-0-|--0--0--0-0-0-0-0--0--0-0-0-0-|

------------------------------|------------------------------|
------------------------------|------------------------------|
------------------------------|------------------------------|
--3--3--3-3-3-3-3--3--3-3-3-3-|--3--3--3-3-3-3-3--3--3-3-3-3-|

------------------------------|------------------------------|
------------------------------|------------------------------|
------------------------------|------------------------------|
--0--0--0-0-0-0-0--0--0-0-0-0-|--0--0--0-0-0-0-0--0--0-0-0-0-|

------------------------------|------------------------------|
------------------------------|------------------------------|
------------------------------|------------------------------|
--3--3--3-3-3-3-3--3--3-3-3-3-|--3--3--3-3-3-3-3--3--3-3-3-3-|

------------------------------|------------------------------|-------|-------|
------------------------------|------------------------------|-------|-------|
------------------------------|------------------------------|-------|-------|
--6--6--6-6-6-6-6--6--6-6-6-6-|--6--6--6-6-6-6-6--6--6-6-6-6-|-------|-------|

6:27
--------------------|--------------------|--------------------|
--------------------|--------------------|--------------------|
--------------------|--------------------|--------------------|
--5--------3--------|--2--------7--------|--8--------7--------|
                                                          6:37
--------------------|---------------------------------||----------------------|
--------------------|---------------------------------||*---------------------|
--------------------|---------------------------------||*---------------------|
--2--------0--------|--5---------3-------5--3--2------||---0------2-----------|

---------------------|---------------------|----------------------||
---------------------|---------------------|---------------------*||
---------------------|---------------------|---------------------*||
--8------7-----------|--5------7------3----|-----5------2---------||

6:50
-------------------|--------------------|--------------------|
-------------------|--------------------|--------------------|
-------------------|--------------------|--------------------|
--8----------------|--10----------------|--15----------------|
                      6:56
--------------------|---------------------|------------------------|
--------------------|---------------------|------------------------|
--------------------|---------------------|------------------------|
--12----------------|--8------8------8----|--10------10------10----|

------------------------|------------------------|----------------------|
------------------------|------------------------|----------------------|
------------------------|------------------------|----------------------|
--15------15------15----|--12------12------12----|--8----8----8----8----|

                                                      7:08
--------------------------|--------------------------|----------------------|
--------------------------|--------------------------|----------------------|
--------------------------|--------------------------|----------------------|
--10----10----10----10----|--11----11----11----11----|--12--------10--------|


-------------------|-------------------|--------------------------|
-------------------|-------------------|--------------------------|
-------------------|-------------------|--------------------------|
--8----------------|--8----------------|--10----10----10----10----|

-----------------------|--------------------|--------------------|
-----------------------|--------------------|--------------------|
-----------------------|--------------------|--------------------|
--10-------------------|--8--------8--------|--8--------8--------|

----------------------|----------------------|--------------------|
----------------------|----------------------|--------------------|
----------------------|----------------------|--------------------|
--10--------10--------|--10--------10--------|--3--------3--------|

--------------------|--------------------|----------------------|
--------------------|--------------------|----------------------|
--------------------|--------------------|----------------------|
--2--------2--------|--0--------0--------|--10--------10--------|

--------------------|--------------------|----------------------|
--------------------|--------------------|----------------------|
--------------------|--------------------|----------------------|
--8--------8--------|--8--------8--------|--10--------10--------|

----------------------|--------------------|--------------------|
----------------------|--------------------|--------------------|
----------------------|--------------------|--------------------|
--10--------10--------|--3--------3--------|--2--------2--------|

--------------------|----------------------|-----------|-----------|-----------|
--------------------|----------------------|-----------|-----------|-----------|
--------------------|----------------------|-----------|-----------|-----------|
--0--------0--------|--10--------10--------|-----------|-----------|-----------|


-----------||
-----------||
-----------||
-----------||

there it is, enjoy!
									


911Tabs.com - tabs search engine
More "A Little Piece Of Heaven" tabs @ 911Tabs

A Guide to Tab NotationGuitar TabsGuitar ResourcesGuitar TabsPrivacy PolicyGuitar TabsContact

Online Guitar Lessons

Avenged Sevenfold Guitar Tabs - Over 200,000 chords, guitar and bass tabs with video. Find tabs, video guitar lessons and more.