Music Guitar Tab, Tabs with MP3, ringtones, ringtone, concert tickets, guitar lessons, guitar tabs easy, guitar hero

Guitar Tabs Guitar Chords Bass Tabs
 Web Guitar Tabs
Guitar Lessons
 
Lyrics abcdefghijklmnopqrstuvwxyz # Top 100 Lyrics

Guitar Tabs
Guitar Tab






click on, click off


Tab for "A Little Piece Of Heaven" - Avenged Sevenfold Rating 4Print Guitar Tabs
select alternative YouTube videos below...
Tweak the search term to refine the YouTube video results:         
Share on Facebook

Learn to play this song and others via online guitar lessons @ JamPlay.com!

-------------------------------------------------------------------------------
			    "A Little Piece of Heaven" --- Avenged Sevenfold
                                               
                                              Tabbed By:
                                               [travis]
                                               
-------------------------------------------------------------------------------


Tabbed by: [travis]


Go easy on me on this tab. It took me a long time to figure it
out and tab it out. Some parts may be a bit off, or missing some
notes, but I tabbed it out the best I could.


Tuning:

Piano: E A D G B E (low to high)
Guitar 1: D A D G B E (low to high)
Guitar 2: Db A D G B E (low to high) 
Guitar 3: D A D G B E (low to high)
Guitar 4: E A D G B E (low to high)



Guitar 2 has the low E string tuned down to a Db. 
It's only the low E string that's tuned down. The 
other strings are at standard tuning.


Key: F Major (F G A Bb C D E F)



Legend:
... = palm mute
p = pull off
h = hammer on
VV = wammy bar
/ = slide up
\ = slide down
() = note barely heard or bring bent note back to normal
* = pinch harmonic
! = harmonic



Intro:
Piano:
e|----0-1--0------------------------------------------------|
B|-3----------3---2---3--5--3----------------------------2--|
G|-3-------2-------------------2--3--0--2-----0--2-3--2-----|
D|----------------2---------0--------------3----------------|
A|----------------------------------------------------0-----|
E|--------------------------------3-----1-----0-------------|


Piano: Choir starts to sing here.
e|----0-1--0------------------------------------------|
B|-3----------3---2---3--5--3-------------------------|
G|-3-------2-------------------2--3--0--2-----0-------|
D|----------------2---------0--------------3-----3--2-|
A|----------------------------------------------------|
E|--------------------------------3-----1-----0-------|


=============================
Guitar 1:
              x1                           x1
e|--5-----6-5-----------------|----------------------------|
B|---------------6--5--1------|-13----14-13----------------|
G|----------------------------|--------------13--12--10----|
D|----------------------------|----------------------------| x2
A|----------------------------|----------------------------|
D|----------------------------|----------------------------|

Guitar 2: Play each bar twice then reapeat playing each bar twice.
             x2                                   x2                 
e |---------------------------------|---------------------------------|
B |---------------------------------|---------------------------------|
G |---------------------------------|---------------------------------|
D |---------------------------------|---------------------------------| x2
A |---------------------------------|---------------------------------|
Db|-1--1---1-1-1-1---1--1---1-1-1-1-|-4--4---4-4-4-4---4--4---4-4-4-4-|
   ...................................................................

==============================
Guitar 2: "Before the story...before the story ends."
e |-----------------------------------------------------------------------|
B |-----------------------------------------------------------------------|
G |-----------------------------------------------------------------------|
D |-----------------------------------------------------------------------| x2
A |-----------------------------------------------------------------------|
Db|-1-1---1-1---1-1---0-0---0-0---0-0---4-4---4-4---4-4---7-7---7-7---7-7-|

==============================
Guitar 2: "And I will take..."
e |---------------------------------------|
B |---------------------------------------|
G |---------------------------------------|
D |---------------------------------------|
A |---------------------------------------|
Db|-4-4---4-4---4-4---7-7---7-7---7-7-7-7-|

==============================
1ST TIME:"Our love had been so strong..."
2ND TIME:"New possbilities I'd never..." 
Guitar 3: Let the notes ring while you slowly push the wammy bar down.
Listen for timing.
     vvvv      vvvv    vvvv               vvvv       vvvv       vvvv   vv
e|---5--------9-------7------5~~--------10---------12---------11-----10~~-|
B|--6-------10-------9-------6~~------10---------14---------12-------10~~-|
G|-7-------9--------8--------7~~----10---------14---------13---------10~~-|
D|---------------------------x--------------------------------------------|
A|---------------------------5~~------------------------------------------|
D|------------------------------------------------------------------------|

===============================
Guitar 3: "Almost laughed myself to tears...Come here you f***ing b**ch!"
Listen for timing.
e|---------------------------------------------------------|
B|---------------------------------------------------------|
G|-------------------5-4~~~~-------------------5---7~~~~~--|
D|-------5-7--3-5-6----------------5-7--3-5-6--------------|
A|-5-7-8---------------------5-7-8-------------------------|
D|---------------------------------------------------------|

==============================
Guitar 3: "Must have stabbed her...Eat it Eat it!"
Listen for timing.
e|--------------------------------------|
B|--------------------------------------|
G|--------------------------------------| x2
D|-14-----13----------------------------|
A|--x------x----------------------------|
D|-12-----11------3---6--3---6---3--/6--|

===============================
Guitar 3: "She was never this good...been quite so f***ing deep in."
e|----------------------------------------------------------------------|
B|----------------------------------------------------------------------|
G|----------------------------------------------------------------------|
D|---------0------0--3---7--8--7--5----------------------2--5-8-7-5-----|
A|------0------0---------------------8--7------0--4---0-------------8-7-|
D|-12--------------------------------------11---------------------------|

===============================
Guitar 2: "It goes on and on...to spray on your youth whenever."
Listen for timing.
e |------------------------------------------|
B |------------------------------------------|
G |------------------------------------------| x2
D |------------------------------------------|
A |------------------------------------------|
Db|-1--3---/9---8----6---8---4-----6--\3---0-|

================================
Guitar 1: "Cause I really knew...but bye bye. And a"
Listen for timing.
e|---------------1-----0----------------------------3------1------------------------|
B|---------------1-----3-----3---3------------------3--1---1--1---1---3------3----3-|
G|-8-----10------2-----2-----2---2---8----8----10----------2----------2------2----2-|
D|-8-----10------3-----3-------------8----8----10----------3----------0----0----0---|
A|-8-----10------x-------------------8----8----10----------x------------------------|
D|-8-----10------3-----0-------------8----8----10----------3----------0-------------|

================================
Guitar 1: "word to the wise...begun."
Listen for timing.
e|-----------------------------------------------------------------|
B|------------------------------------------------6---------5------|
G|-8---8---8---------------------10---10---10--------7---------5---|
D|-8---8---8----10---10---10------8----8----8-----0-----7--------5-|
A|-8---8---8----10---10---10-----10---10---10---------------3------|
D|-8---8---8----10---10---10---------------------------------------|

================================
Guitar 1: "...baby don't cry. You had my heart."
Listen for timing.
e|--------------------------------------|
B|--------------------------------------|
G|-8---8---8---8---10--10--10--10---10--|
D|-8---8---8---8---10--10--10--10---10--|
A|-8---8---8---8---10--10--10--10---10--|
D|-8---8---8---8---10--10--10--10---10--|

===============================
Guitar 1: "...at least for the most part."
Listen for timing.
e|--------------------------------------|
B|--------------------------------------|
G|-8---8---8---8---10--10--10--10---10--|
D|-8---8---8---8---10--10--10--10---10--|
A|-8---8---8---8---10--10--10--10---10--|
D|-8---8---8---8---10--10--10--10---10--|

===============================
Guitar 1: "Cause everybody's...We fell apart."
Listen for timing.
e|-1---1----0----0-----1----1--------------|
B|-1---1----1----1-----3----3-----1-----1--|
G|-2---2----0----0-----2----2-----0-----0--|
D|-3---3----2----------3----------2-----2--|
A|-3--------x----------x----------3-----3--|
D|-3--------2----------0-------------------|

===============================
Guitar 1: "Let's make a new start."
Listen for timing.
e|--------------------------------------|
B|--------------------------------------|
G|-8---8---8---8---10--10--10--10---10--|
D|-8---8---8---8---10--10--10--10---10--|
A|-8---8---8---8---10--10--10--10---10--|
D|-8---8---8---8---10--10--10--10---10--|

================================
Guitar 1: "Cause everybody's got to die..."
Listen for timing.
e|-1---1----0----0-----1----1--------------|
B|-1---1----1----1-----3----3-----1-----1--|
G|-2---2----0----0-----2----2-----0-----0--|
D|-3---3----2----------3----------2-----2--|
A|-3--------x----------x----------3-----3--|
D|-3--------2----------0-------------------|

=================================
Guitar 1: "But baby don't cry..."
Listen for timing.
e|--------------------------------------|
B|--------------------------------------|
G|-8---8---8---8---10--10--10--10---10--|
D|-8---8---8---8---10--10--10--10---10--|
A|-8---8---8---8---10--10--10--10---10--|
D|-8---8---8---8---10--10--10--10---10--|

***Now go back and repeat from the whammy bar part.
It should be when Shadows says: "New possibilities."
When you get back to this part for the second time,
go on to the INTERLUDE below VVVVVVV.

=================================
*******************************
*******************************
Interlude
Guitar 2:
e |--------------------------------------------------------------|
B |--------------------------------------------------------------|
G |---3--2----3-2----3-2----3-2---6-5------6-5------6-5------6-5-|
D |--------------------------------------3--------2--------2-----| x2
A |--------------------------------------------------------------|
Db|-1-------4------3------0-----4------7--------6--------3-------|

=================================
Guitar 1: "I will suffer...I pray to God that you do."
Listen for timing.
e|----------------------------------------------------------|
B|----------------------------------------------------------|
G|------14---13---10-------15---14---12-------15---14---12--|
D|-------x----x----x--------x----x----x--------x----x----x--|
A|-5----12---10----8-------13---12---10-------13---12---10--|
D|---------------------8------------------5-----------------|

=================================
Guitar 1: "I'll do what ever you want...unchained."
Listen for timing.
e|--------------------------------|
B|--------------------------------|
G|-10-----9-----------------------|
D|--------------12----11-----11---|
A|--------------------------------|
D|-10----10-----10----11-----11---|

=================================
Guitar 1: "And if it's not enough...if it's not enough, if it's"
Listen for timing. Play this riff while the strings are playing.
e|----------------------------------------------------------|
B|----------------------------------------------------------|
G|------14---13---10-------15---14---12-------15---14---12--|
D|-------x----x----x--------x----x----x--------x----x----x--|
A|-5----12---10----8-------13---12---10-------13---12---10--|
D|---------------------8------------------5-----------------|

Guitar 4: Violins
e|-------3-----------3-5---------3-----5---3-------|
B|-3-5-6---6-5-3-5-6-----6-3-5-6---6-5---6---5-6-3-|
G|-------------------------------------------------|
D|-------------------------------------------------|
A|-------------------------------------------------|
E|-------------------------------------------------|

=================================
"Not enough, If it's not enough, If it's not enough."
Guitar 4: Violins
e|-6-3-5---3---6-3-5-6-5-3-5---3---5---3-----3-5---------------|
B|-------6---5---------------6---5---6---5-6-----6-3-5-6-3-5---|
G|-----------------------------------------------------------5-|
D|-------------------------------------------------------------|
A|-------------------------------------------------------------|
E|-------------------------------------------------------------|

==================================
"Try again, try again."
Guitar 4: Violins
e|-6-----------------3-5---3-5-------|
B|-x-5-6-3-5-----5-6-----6-----5-6-5-|
G|-3---------5-2---------------------|
D|-----------------------------------|
A|-----------------------------------|
E|-----------------------------------|

==================================
Guitar 1: "and again, and again. Over and over again."
e|--------------------------------|
B|--------------------------------|
G|-10----9------------------------|
D|-----------12----11----11---11--|
A|--------------------------------|
D|-10---10---10----11----11---11--|

Guitar 4:
e|-----------3---3-5-6-5-3-6-5-3-------------3-5-6-|
B|-6-5-3-6-5---6-----------------6-5-3-2-3-5-------|
G|-------------------------------------------------|
D|-------------------------------------------------|
A|-------------------------------------------------|
E|-------------------------------------------------|

====================================
Guitar 3: "We're coming back, coming back..."
Listen for timing.
e|------------------------|
B|------------------------|
G|------------------------|
D|-0---------0------------|
A|--------0------------8--|
D|------------------10----|


Guitar 1: Listen for rhythm for the chords with the () only.
e|-----------------------------------8---7h/8--7h/8-|
B|--6---5h/6--5h/6---6--5h/6--5h/6---9---8h/9--8h/9-|
G|--7---6h/7--6h/7---7--6h/7--6h/7--(-)-------------|
D|-(-)--------------(-)-----------------------------|
A|--------------------------------------------------|
D|--------------------------------------------------|

=====================================
Guitar 3: "Let's start the killing, start the killing."
e|-----------------|
B|-----------------|
G|-----------------|
D|-----------------|
A|----8---------0--|
D|-10--------------|

Guitar 1: Rhythm for () chord only.
e|--8--7h/8--7h/8--|
B|--9--8h/9--8h/9--|
G|-(-)-------------|
D|-----------------|
A|-----------------|
D|-----------------|

======================================
Break:
Guitar 1: Listen for timing.
               x1                           x1
e|--5-----6-5-----------------|----------------------------|
B|---------------6--5--1------|-13----14-13----------------|
G|----------------------------|--------------13--12--10----|
D|----------------------------|----------------------------| x2
A|----------------------------|----------------------------|
D|----------------------------|----------------------------|

Guitar 3:
           x2                               x2
e|----------------------------|----------------------------|
B|----------------------------|----------------------------|
G|----------------------------|----------------------------|
D|----------------------------|----------------------------| x2
A|----------------------------|----------------------------|
D|-0-0--0-0-0-0-0--0--0-0-0-0-|-3-3--3-3-3-3-3--3--3-3-3-3-|
   .......................................................

=======================================


Guitar 3:
e|----------------------------------------------------------|
B|----------------------------------------------------------|
G|----------------------------------------------------------|
D|----------------------------------------------------------|
A|----------------------------------------------------------|
D|-6-6--6-6-6-6-6--6--6-6-6-6--6-6--6-6-6-6-6-6-6-6-6-6-6-6-|
   ........................................................

========================================
Piano:
e|----0-1--0------------------------------------------------|
B|-3----------3---2---3--5--3----------------------------2--|
G|-3-------2-------------------2--3--0--2-----0--2-3--2-----|
D|----------------2---------0--------------3----------------|
A|----------------------------------------------------0-----|
E|--------------------------------3-----1-----0-------------|


Piano: 
e|----0-1--0------------------------------------------|
B|-3----------3---2---3--5--3-------------------------|
G|-3-------2-------------------2--3--0--2-----0-------|
D|----------------2---------0--------------3-----3--2-|
A|----------------------------------------------------|
E|--------------------------------3-----1-----0-------|


Guitar 1:
               x1                           x1
e|--5-----6-5-----------------|----------------------------|
B|---------------6--5--1------|-13----14-13----------------|
G|----------------------------|--------------13--12--10----|
D|----------------------------|----------------------------| x2
A|----------------------------|----------------------------|
D|----------------------------|----------------------------|

==========================================
Guitar 2: "Do you take this man...I now pronounce you."
Listen for timing.
e |------------------------------------------|
B |------------------------------------------|
G |------------------------------------------| x2
D |------------------------------------------|
A |------------------------------------------|
Db|-1--3---/9---8----6---8---4-----6--\3---0-|

==========================================
Guitar 1: "Cause I really knew...but bye bye. And a"
Listen for timing.
e|---------------1-----0----------------------------3------1------------------------|
B|---------------1-----3-----3---3------------------3--1---1--1---1---3------3----3-|
G|-8-----10------2-----2-----2---2---8----8----10----------2----------2------2----2-|
D|-8-----10------3-----3-------------8----8----10----------3----------0----0----0---|
A|-8-----10------x-------------------8----8----10----------x------------------------|
D|-8-----10------3-----0-------------8----8----10----------3----------0-------------|

===========================================
Guitar 1: "word to the wise...begun."
Listen for timing.
e|-----------------------------------------------------------------|
B|------------------------------------------------6---------5------|
G|-8---8---8---------------------10---10---10--------7---------5---|
D|-8---8---8----10---10---10------8----8----8-----0-----7--------5-|
A|-8---8---8----10---10---10-----10---10---10---------------3------|
D|-8---8---8----10---10---10---------------------------------------|

================================
Guitar 1: "...baby don't cry. You had my heart."
Listen for timing.
e|--------------------------------------|
B|--------------------------------------|
G|-8---8---8---8---10--10--10--10---10--|
D|-8---8---8---8---10--10--10--10---10--|
A|-8---8---8---8---10--10--10--10---10--|
D|-8---8---8---8---10--10--10--10---10--|

===============================
Guitar 1: "...at least for the most part."
Listen for timing.
e|--------------------------------------|
B|--------------------------------------|
G|-8---8---8---8---10--10--10--10---10--|
D|-8---8---8---8---10--10--10--10---10--|
A|-8---8---8---8---10--10--10--10---10--|
D|-8---8---8---8---10--10--10--10---10--|

===============================
Guitar 1: "Cause everybody's...We fell apart."
Listen for timing.
e|-1---1----0----0-----1----1--------------|
B|-1---1----1----1-----3----3-----1-----1--|
G|-2---2----0----0-----2----2-----0-----0--|
D|-3---3----2----------3----------2-----2--|
A|-3--------x----------x----------3-----3--|
D|-3--------2----------0-------------------|

================================
Guitar 1: "Let's make a new start."
Listen for timing.
e|--------------------------------------|
B|--------------------------------------|
G|-8---8---8---8---10--10--10--10---10--|
D|-8---8---8---8---10--10--10--10---10--|
A|-8---8---8---8---10--10--10--10---10--|
D|-8---8---8---8---10--10--10--10---10--|

================================
Guitar 1: "Cause everybody's got to die..."
Listen for timing.
e|-1---1----0----0-----1----1--------------|
B|-1---1----1----1-----3----3-----1-----1--|
G|-2---2----0----0-----2----2-----0-----0--|
D|-3---3----2----------3----------2-----2--|
A|-3--------x----------x----------3-----3--|
D|-3--------2----------0-------------------|

=================================
Guitar 1: "But baby don't cry..."
Listen for timing.
e|----------------------------------|
B|----------------3---3---3---3--3--|
G|-8--8---8---8---0---0---0---0--0--|
D|-8--8---8---8---x---x---x---x--x--|
A|-8--8---8---8---3---3---3---3--3--|
D|-8--8---8---8---------------------|

That's the end of the song.
Please Rate and Comment.
Thanks.
[travis]



									


911Tabs.com - tabs search engine
More "A Little Piece Of Heaven" tabs @ 911Tabs

A Guide to Tab NotationGuitar TabsGuitar ResourcesGuitar TabsPrivacy PolicyGuitar TabsContact

Online Guitar Lessons

Avenged Sevenfold Guitar Tabs - Over 200,000 chords, guitar and bass tabs with video. Find tabs, video guitar lessons and more.