Music Guitar Tab, Tabs with MP3, ringtones, ringtone, concert tickets, guitar lessons, guitar tabs easy, guitar hero

Guitar Tabs Guitar Chords Bass Tabs
 Web Guitar Tabs
Guitar Lessons
 
Lyrics abcdefghijklmnopqrstuvwxyz # Top 100 Lyrics

Guitar Tabs
Guitar Tab






click on, click off


Tab for "Temptation Greets You Like Your Naughty Friend" - Arctic Monkeys Rating 4Print Guitar Tabs
select alternative YouTube videos below...
Tweak the search term to refine the YouTube video results:         
Share on Facebook

Learn to play this song and others via online guitar lessons @ JamPlay.com!

Arctic Monkeys (ft.Dizzee Rascal)
Temptation Greets You Like Your Naughty Friend

regular tuning (E,A,D,G)


Intro (00:08)
|----------------------|
|----------------------| X3
|----------7-8--777775-| 
|--5--5--8-------------|

|----------------------|
|----------------------|
|----------7-8---7-5---| 
|--5--5--8-----------8-|


Verse
|----------------------|----------------------|
|----------------------|----------------------| \
|----------7-8--777775-|----------7-8--777775-|  \
|--5--5--8-------------|--5--5--8-------------|   \
                                                   x2
|----------------------|----------------------|   /
|----------------------|----------------------|  /
|----------7-8--777775-|----------7-8---7-5---| /
|--5--5--8-------------|--5--5--8-----------8-|


|----------------------|----------------------|
|----------------------|----------------------|
|----------7-8--777775-|----------7-8--777775-|
|--5--5--8-------------|--5--5--8-------------|

|----------------------|-------------------|
|----------------------|-------------------|
|----------7-8--777775-|----------7-8---77-| 
|--5--5--8-------------|--5--5--8----------|


Chorus
|----------------------------------|
|----------------------------------| X2
|------------------7-----5-7-5-----|
|--5---5-7-8---8-8-----8-------8-7-|


Verse 2
|----------------------|-------------------|
|----------------------|-------------------|
|----------7-8--777775-|----------7-8---77-| 
|--5--5--8-------------|--5--5--8----------|

|----------------------|----------------------|
|----------------------|----------------------|
|----------7-8--777775-|----------7-8--777775-|
|--5--5--8-------------|--5--5--8-------------|
                                               
|----------------------|----------------------|
|----------------------|----------------------|
|----------7-8--777775-|----------7-8---7-5---|
|--5--5--8-------------|--5--5--8-----------8-|

|----------------------|----------------------|
|----------------------|----------------------|
|----------7-8--777775-|----------7-8--777775-|
|--5--5--8-------------|--5--5--8-------------|
                                               
|----------------------|-------------------|
|----------------------|-------------------|
|----------7-8--777775-|----------7-8------|
|--5--5--8-------------|--5--5--8----------|


Chorus 2
|----------------------------------|
|----------------------------------| X4
|------------------7-----5-7-5-----|
|--5---5-7-8---8-8-----8-------8-7-|

|------|
|------|
|------|
|--5~--|


Bridge
|----------------------|
|----------------------| X7
|----------7-8---7-5---|
|--5--5--8-----------8-|

|----------------------|
|----------------------|
|----------7-------5-7-|
|--5--5--8---5-7-8-----|

|-----------------------|
|-----------------------|
|-777775-55555----------|
|-------------8-888887--| 


Bass Fill then Final Chorus
|--------------------------------------|
|--------------------------------------|
|--75------------------7-----5-7-5-----|
|----875---5-7-8---8-8-----8-------8-7-|

|----------------------------------|
|----------------------------------| X3
|------------------7-----5-7-5-----|
|--5---5-7-8---8-8-----8-------8-7-|

|------|
|------|
|------|
|--5---|

and thats that...
please rate and comment =]
									


911Tabs.com - tabs search engine
More "Temptation Greets You Like Your Naughty Friend" tabs @ 911Tabs

A Guide to Tab NotationGuitar TabsGuitar ResourcesGuitar TabsPrivacy PolicyGuitar TabsContact

Online Guitar Lessons

Arctic Monkeys Guitar Tabs - Over 200,000 chords, guitar and bass tabs with video. Find tabs, video guitar lessons and more.