Music Guitar Tab, Tabs with MP3, ringtones, ringtone, concert tickets, guitar lessons, guitar tabs easy, guitar hero

Guitar Tabs Guitar Chords Bass Tabs
 Web Guitar Tabs
Guitar Lessons
 
Lyrics abcdefghijklmnopqrstuvwxyz # Top 100 Lyrics

Guitar Tabs
Guitar Tab






click on, click off


Tab for "Fluorescent Adolescent" - Arctic Monkeys Rating 4Print Guitar Tabs
select alternative YouTube videos below...
Tweak the search term to refine the YouTube video results:         
Share on Facebook

Learn to play this song and others via online guitar lessons @ JamPlay.com!

Intro:

|--------------------------------------------------------------|
|--------------------------------------------------------------|
|------------------6-6-6----6---4-------------6--4-4-4---------|
|--2-2-2-----------6-6-6----------4-4-4----------4-4-4---------|
|--2-2-2--------2--4-4-4--4---2---4-4-4----------2-2-2---------|
|--0-0-0--0-2-4-------------------2-2-2--2---------------3/4\2-|


|--------------------------------------------------------------|
|--------------------------------------------------------------|
|------------------6-6-6----6---4-------------6--4-4-4---------|
|--2-2-2-----------6-6-6----------4-4-4----------4-4-4---------|
|--2-2-2--------2--4-4-4--4---2---4-4-4----------2-2-2---------|
|--0-0-0--0-2-4-------------------2-2-2--2---------------3/4\2-|


Verse 1:

LET THE BASS PLAY ONCE AND THEN

|--------------------------------------------------------------|
|--------------------------------------------------------------|
|------------------6-6-6----6---4-------------6--4-4-4---------|
|--2-2-2-----------6-6-6----------4-4-4----------4-4-4---------|
|--2-2-2--------2--4-4-4--4---2---4-4-4----------2-2-2---------|
|--0-0-0--0-2-4-------------------2-2-2--2---------------3/4\2-|


Chorus 1:

|---------------------------------------------------------------------|
|---------------------------------------------------------------------|
|-----------------------------------4-4----------------------4-4--4-4-|
|--------------4-4------------------2-2----------4-4--4-4----4-4--4-4-|
|--------------4-4------------------2-2----------4-4--4-4----2-2--2-2-|
|--------------2-2-------------------------------2-2--2-2-------------|
 Oh the boys a slag       The best you ever had          The best you ever had is just a memory

|----------------------------------------------------------------------|
|----------------------------------------------------------------------|
|----------------------------------------------------------------------|
|-4-4-4-4-4-4-4-4-/-9-9-9-9-9-9-9----4-------------------9-------------|
|-4-4-4-4-4-4-4-4-/-9-9-9-9-9-9-9----4-------------------9-------------|
|-2-2-2-2-2-2-2-2-/-7-7-7-7-7-7-7----2-------------------7-------------|
And those dreams but as daft as they seem  but as daft as they seemed my love when you...

Verse 2 (different to verse 1)

"Flicking Through a little book of sex tips"


|--------------------------------------------------------------|
|--------------------------------------------------------------|
|------------------6-6-6----6---4-------------6--4-4-4---------|
|--2-2-2-----------6-6-6----------4-4-4----------4-4-4---------|
|--2-2-2--------2--4-4-4--4---2---4-4-4----------2-2-2---------|
|--0-0-0--0-2-4-------------------2-2-2--2---------------3/4\2-|


|---------------------------------------|
|---------------------------------------|
|------------------6-6-6----6---4-------|
|--2-2-2-----------6-6-6----------4-4-4-|
|--2-2-2--------2--4-4-4--4---2---4-4-4-|
|--0-0-0--0-2-4-------------------2-2-2-| was it a megadobra or a betting pencil


Chorus 2 (ONCE AGAIN DIFFERENT)

|-------------------------------------------------------------------|
|-------------------------------------------------------------------|
|-------------------------------------------------------------------|
|-4-4-4-4-4-4-4-4-/-9-9-9-9-9-9-9-\4-4-4-4-4-4-4-4-/-9-9-9-9-9-9-9--|
|-4-4-4-4-4-4-4-4-/-9-9-9-9-9-9-9-\-4-4-4-4-4-4-4-4-/-9-9-9-9-9-9-9-|
|-2-2-2-2-2-2-2-2-/-7-7-7-7-7-7-7-\-2-2-2-2-2-2-2-2-/-7-7-7-7-7-7-7-|
Oh the boys a slag, the best you ever had the best you ever had is just a memory

|---------------------------------------------------------------------------|
|---------------------------------------------------------------------------|
|------------------------------------4-4------------------------------------|
|--------------4-4-------------------4-4--4-4-4-4-4-4-4-4-/-9-9-9-9-9-9-9-9-|
|--------------4-4-------------------2-2--4-4-4-4-4-4-4-4-/-9-9-9-9-9-9-9-9-|
|--------------2-2------------------------2-2-2-2-2-2-2-2-/-7-7-7-7-7-7-7-7-|
And those dreams         But as daft as they seem       as daft as they seem my
 love when you.... oh


Bridge

|------------------------------------------------------------|
|------------------------------------------------------------|
|-------------------------------------------------6--6-------|
|--6--6----6--6---11--11--11--11----4--4---4--4---6--6--4--4-|
|--6--6----6--6---11--11--11--11----4--4---4--4---4--4--4--4-|
|--4--4----4--4----9--9----9--9-----2--2---2--2---------2--2-|
 ohhh where did you go


Bridge part 2

|--------------------------------------------------------|
|--------------------------------------------------------|
|------------------6-6-6----6---4-------------6--4-4-4---|
|--2-2-2-----------6-6-6----------4-4-4----------4-4-4---|
|--2-2-2--------2--4-4-4--4---2---4-4-4----------2-2-2---|
|--0-0-0--0-2-4-------------------2-2-2--2---------------|


PLAY THIS FOUR TIMES AND LISTEN TO THE TIMING OF THE SONG
AFTER FOURTH TIME PLAY:

|---------------------------|
|---------------------------|
|-4-4-4-4-4/8-8-8-8-8-8-9-8-|
|-4-4-4-4-4/8-8-8-8-8-8-9-8-|
|-2-2-2-2-2/6-6-6-6-6-6-7-6-|

AFTER THAT PLAY THIS RIFF TILL THE END.
|--------------------------------------------------------|
|--------------------------------------------------------|
|------------------6-6-6----6---4-------------6--4-4-4---|
|--2-2-2-----------6-6-6----------4-4-4----------4-4-4---|
|--2-2-2--------2--4-4-4--4---2---4-4-4----------2-2-2---|
|--0-0-0--0-2-4-------------------2-2-2--2---------------|

|
									


911Tabs.com - tabs search engine
More "Fluorescent Adolescent" tabs @ 911Tabs

A Guide to Tab NotationGuitar TabsGuitar ResourcesGuitar TabsPrivacy PolicyGuitar TabsContact

Online Guitar Lessons

Arctic Monkeys Guitar Tabs - Over 200,000 chords, guitar and bass tabs with video. Find tabs, video guitar lessons and more.