Music Guitar Tab, Tabs with MP3, ringtones, ringtone, concert tickets, guitar lessons, guitar tabs easy, guitar hero

Guitar Tabs Guitar Chords Bass Tabs
 Web Guitar Tabs
Guitar Lessons
 
Lyrics abcdefghijklmnopqrstuvwxyz # Top 100 Lyrics

Guitar Tabs
Guitar Tab






click on, click off


Tab for "Despair In The Departure Lounge" - Arctic Monkeys Rating 4Print Guitar Tabs
select alternative YouTube videos below...
Tweak the search term to refine the YouTube video results:         
Share on Facebook

Learn to play this song and others via online guitar lessons @ JamPlay.com!

Artist: The Arctic Monkeys
Song: Despair In The Departure Lounge

I made these tabs because i was bored of sitting watching my guitarist perform this on 
alone and i wanted to join in because i love this song. Its pretty simple it basicly uses 
A major scale

Intro

||---------------------------|
||--------4------------------|
||--5------------------------| only player once
||-------------7----5--------|

Verse1

||-------------------------------------|
||----------4x12-----------------------|
||--5x12-------------------------------|  Repeat x2
||------------------7x12----5x12-------|

Bridge 1

||------------------------------------|
||----------4x7-----------------------|
||--5x7-------------------------------|  only played once
||------------------7x7----5x7--------|


Verse 2

||-------------------------------------|
||----------4x12-----------------------|
||--5x12-------------------------------|  Repeat x2
||------------------7x12----5x12-------|

Chorus

||-------------------------------------------|
||-------5x4-------5x4--------7--5--4--7-----|
||----------------------------------------5--| only play once
||--7x4-------7x4-------7x4------------------|

Piano solo
||-------------------------------------|
||----------4x12-----------------------|
||--5x12-------------------------------|  Repeat x2
||------------------7x12----5x12-------|

Verse 2

||-------------------------------------|
||----------4x12--5x12--7x12-----------|
||--5x12-------------------------------|  Repeat x2
||-------------------------------------|

Chorus

||-------------------------------------------|
||-------5x4-------5x4--------7--5--4--7-----|
||-------------------------------------------| only play once
||--7x4-------7x4-------7x4------------------|

Outro

||-------------------------------------------|
||-------4x4-------5x2--7x2-----5x4--7x4-----|
||--5x4-----------------------------------5--|  only play once
||------------7x4------------7---------------|
									


911Tabs.com - tabs search engine
More "Despair In The Departure Lounge" tabs @ 911Tabs

A Guide to Tab NotationGuitar TabsGuitar ResourcesGuitar TabsPrivacy PolicyGuitar TabsContact

Online Guitar Lessons

Arctic Monkeys Guitar Tabs - Over 200,000 chords, guitar and bass tabs with video. Find tabs, video guitar lessons and more.