Music Guitar Tab, Tabs with MP3, ringtones, ringtone, concert tickets, guitar lessons, guitar tabs easy, guitar hero

Guitar Tabs Guitar Chords Bass Tabs
 Web Guitar Tabs
Guitar Lessons
 
Lyrics abcdefghijklmnopqrstuvwxyz # Top 100 Lyrics

Guitar Tabs
Guitar Tab






click on, click off


Tab for "Choo Choo" - Arctic Monkeys Rating 4Print Guitar Tabs
select alternative YouTube videos below...
Tweak the search term to refine the YouTube video results:         
Share on Facebook

Learn to play this song and others via online guitar lessons @ JamPlay.com!

-----------------------------------------------------------------------------
			    Choo Choo - Arctic Monkeys
-----------------------------------------------------------------------------
Tabbed by: kievo
Email: Kevin_Moyaert@hotmail.com

Tuning: Standard
                                          x28
e|-9-9-------9-9-------|----9-9-----------|  \
B|-9-9-------9-9-------|----9-9-----------|   Guitar 1
G|-9-9-------9-9-------|o---9-9----------o|  /
D|---------------------|o----------------o|  \
A|---------------------|----9-7-8-7-------|   Guitar 2
E|-----------------14\-|--9---------9-7---|  /

Guitar 1        x3
e|--------------|---------------------------|
B|--------------|---------------------------|
G|o------------o|---------------------------| 
D|o-1111111111-o|-99999999-1010101010101010-|
A|--1111111111--|-99999999-1010101010101010-|
E|--9-9-9-9-9---|-77777777-8-8-8-8-8-8-8-8--|

Guitar 1        x3
e|--------------|---------------------------|
B|--------------|---------------------------|
G|o------------o|---------------------------| 
D|o-1111111111-o|-99999999-1010101010101010-|
A|--1111111111--|-99999999-1010101010101010-|
E|--9-9-9-9-9---|-77777777-8-8-8-8-8-8-8-8--|

Guitar 1                     x4
e|---------------------------|-----------------------------------------|
B|---------------------------|-----------------------------------------|
G|o--------11-9-9999--------o|-----------------------------------------|
D|o-1111---11-9-9999--------o|-----------------------------------------|
A|--1111-x-9--7-7777---------|-----------------------------------------|
E|--9-9--x-------------------|-----------------------------------------|

Guitar 2                     x4                    (not sure about this part)
e|---------------------------|-----------------------------------------|
B|---------------------------|-----------------------------------------|
G|o-------------------------o|-----------------------------------------|
D|o-------------------------o|-------------------------------7/11------|
A|---------9--7-777-9-7------|---------7-9-9-9b-7~--7/11-7/9-----------|
E|--9-9-----------------9-7--|-9---7h9----------------------------14\9-|

                    x16
e|----9-9-----------|  \
B|----9-9-----------|   Guitar 1
G|o---9-9----------o|  /
D|o----------------o|  \
A|----9-7-8-7-------|   Guitar 2
E|--9---------9-7---|  /

Guitar 1        x3
e|--------------|---------------------------|
B|--------------|---------------------------|
G|o------------o|---------------------------| 
D|o-1111111111-o|-99999999-1010101010101010-|
A|--1111111111--|-99999999-1010101010101010-|
E|--9-9-9-9-9---|-77777777-8-8-8-8-8-8-8-8--|

Guitar 1        x3
e|--------------|---------------------------|
B|--------------|---------------------------|
G|o------------o|---------------------------| 
D|o-1111111111-o|-99999999-1010101010101010-|
A|--1111111111--|-99999999-1010101010101010-|
E|--9-9-9-9-9---|-77777777-8-8-8-8-8-8-8-8--|

Guitar 1                     x4
e|---------------------------|------------------------|
B|---------------------------|------------------------|
G|o--------11-9-9999--------o|------------------------|
D|o-1111---11-9-9999--------o|-11---11---11-----------|
A|--1111-x-9--7-7777---------|-11---11---11-----------|
E|--9-9--x-------------------|-9----9----9------------|

Guitar 2                     x4                         
e|---------------------------|------------------------|
B|---------------------------|------------------------|
G|o-------------------------o|------------------------|
D|o-------------------------o|------------------------|
A|---------9--7-777-9-7------|---------------(slides)-|
E|--9-9-----------------9-7--|-9----9----9------------|

Guitar 2 (solo)
e|-----------------------------------------------------------------------|
B|-----------------------------------------------------------------------|
G|-----------------------------------------------------------------------|
D|-----------------------------------------------------------------------|
A|---7-9-10-11---7-9-10-11---------7---------------7----------7-9-10-11--|
E|-9-----------7-----------9-7h8h9---9-7h9-9-7h8h9---9-7h9--9------------|

e|--------------------------------------------------------|
B|--------------------------------------------------------|
G|------9-11b-11-9---------9-11-9-11-9-11b-11b-11b-11b-9~-|
D|-9-11------------11-9-11--------------------------------|
A|--------------------------------------------------------|
E|--------------------------------------------------------|

Guitar 1
e|------------------------------------------------------------|
B|------------------------------------------------------------|
G|------11-9--------------------------11-9--------------------|
D|-1111-11-9---------------------1111-11-9--------------------|
A|-1111-9--7---------------------1111-9--7--------------------|
E|-9-9---------------------------9-9--------------------------|

Guitar 2
e|------------------------------------------------------------|
B|------------------------------------------------------------|
G|--------------9-11-11b-11b-11b-11b-9-----11-9---------9-----|
D|-----------11---------------------------------11-9-11---11--|
A|------------------------------------------------------------|
E|------------------------------------------------------------|

Guitar 1
e|-----------------------------------------------------------------|
B|-----------------------------------------------------------------|
G|------11-9-------------------------------11-9--------------------|
D|-1111-11-9--------------------------1111-11-9--------------------|
A|-1111-9--7--------------------------1111-9--7--------------------|
E|-9-9--------------------------------9-9--------------------------|

Guitar 2
e|-----------------------------------------------------------------|
B|-----------------------------------------------------------------|
G|----------------------------------9-11b-9--------9---------9-----|
D|-----------------------------9-11---------11--11---11-9-11---11--|
A|-----------9-7-9-7-9-99-9/11-------------------------------------|
E|-----------------------------------------------------------------|

Guitar 1                     
e|---------------------------------------------------------|
B|---------------------------------------------------------|
G|o--------11-9-9999---------------11-9-9-9-9-9------------|
D|o-1111---11-9-9999--------1111---11-9-9-9-9-9------------|
A|--1111-x-9--7-7777--------1111-x-9--7-7-7-7-7------------|
E|--9-9--x------------------9-9--x-------------------------|

Guitar 2                                             
e|---------------------------------------------------------|
B|---------------------------------------------------------|
G|o----------------------------------------------9---------|
D|o-------------------------------------11-11-11---11-9-11-|
A|---------9--7-777-9-7------------9--7--------------------|
E|--9-9-----------------9-7-9-9----------------------------|

Guitar 1                     x2
e|---------------------------|--------------------------|
B|---------------------------|--------------------------|
G|o--------11-9-9999--------o|--------------------------|
D|o-1111---11-9-9999--------o|-11---11---11---11---11---|
A|--1111-x-9--7-7777---------|-11---11---11---11---10---|
E|--9-9--x-------------------|-9----9----9----9----8----|

Guitar 2                     x2                         
e|---------------------------|--------------------------|
B|---------------------------|--------------------------|
G|o-------------------------o|--------------------------|
D|o-------------------------o|--------------------------|
A|---------9--7-777-9-7------|--------------------------|
E|--9-9-----------------9-7--|-9----9----9----9---------|

I hope this helped
Iím not sure about the slides and the last chord though

| b  bend (1/2 step)
| /  slide up
| \  slide down
| h  hammer-on
| ~  vibrato
| x  Mute note
=============================================================================

									


911Tabs.com - tabs search engine
More "Choo Choo" tabs @ 911Tabs

A Guide to Tab NotationGuitar TabsGuitar ResourcesGuitar TabsPrivacy PolicyGuitar TabsContact

Online Guitar Lessons

Arctic Monkeys Guitar Tabs - Over 200,000 chords, guitar and bass tabs with video. Find tabs, video guitar lessons and more.