Music Guitar Tab, Tabs with MP3, ringtones, ringtone, concert tickets, guitar lessons, guitar tabs easy, guitar hero

Guitar Tabs Guitar Chords Bass Tabs
 Web Guitar Tabs
Guitar Lessons
 
Lyrics abcdefghijklmnopqrstuvwxyz # Top 100 Lyrics

Guitar Tabs
Guitar Tab






click on, click off


Tab for "505" - Arctic Monkeys Rating 4Print Guitar Tabs
select alternative YouTube videos below...
Tweak the search term to refine the YouTube video results:         
Share on Facebook

Learn to play this song and others via online guitar lessons @ JamPlay.com!

Tabbed By : Clark J
e-mail: clark.jacobson@charter.net

Tuning: EADG
0:41-1:35, 2:03-2:30
G|---------------------------------------------------------------------------|
D|---------------------------------------------------------------------------|
A|5~~~~~~~~~~~~~~~~~~~~~-----------------------------------------------------|
E|----------------------0~~~~~~~~~~~~~~~~~~----------------------------------|
1:35-2:03
G|---------------------------------------------------------------------------|
D|----5-5-7-7-5-5------------------------------------------------------------|
A|5-5-------------5~~~~~-7-7--7-7-7--7-7/10-10-10-10-10-10-10----------------|
E|---------------------------------------------------------------------------|
2:30-3:53
G|---------------------------------------------------------------------------|
D|----------------3----------------------------------------------------------|
A|55-3h55-3h55-3h5--5-3-77-5h77-5h7/10-10-10-10-10-10------------------------|
E|---------------------------------------------------------------------------|
End with
G|---------------------------------------------------------------------------|
D|---------------------------------------------------------------------------|
A|5/x------------------------------------------------------------------------|
E|---------------------------------------------------------------------------|


| /  slide up
| \  slide down
| h  hammer-on
| p  pull-off
| ~  vibrato
| +  harmonic
| x  Mute note
===============================================================================

									


911Tabs.com - tabs search engine
More "505" tabs @ 911Tabs

A Guide to Tab NotationGuitar TabsGuitar ResourcesGuitar TabsPrivacy PolicyGuitar TabsContact

Online Guitar Lessons

Arctic Monkeys Guitar Tabs - Over 200,000 chords, guitar and bass tabs with video. Find tabs, video guitar lessons and more.